Take the Reins - Live
by Tsunami Bomb

(album - Ultimate Escape)

This is as perfect as you will see, i met Tsunami Backstage at the wedgewood
room, and got a guitar lesson from mike, and he showed me how to play it all.
This is basically what he plays live and may differ from the Album Version. 

Email me at [email protected] with any comments
Check out www.takentheday.cjb.net for a Uk female fronted punk band, inspired
by Tsunami Bomb and others.

Intro x2
e|---------------------------------------------------------|
B|---------------------------------------------------------|
G|---------------------------------------------------------|
D|-----555333--------555333---------555333---------5-3-6-5-|
A|-3-3-------6-5------------6-5------------6-5-6-6---------|
E|---------------6-6------------5-5------------------------|

after intro x4 
e|--------------------------------------------------------|
B|--------------------------------------------------------|
G|-4------------------------------------------------------|
D|-5------------------------------------------------------|
A|-3------------------------------------------------------|
E|--------------------------------------------------------|

Verse
e|--------------------------------------------------------|
B|--------------------------------------------------------|
G|-444-------------------------444------------------------|
D|-555-777-666-444-7~~---------555-777-666-444-7~~--------|
A|-333-888-777-555-8~~---------333-888-777-555-8~~--------|
E|-----666-555-333-6~~-------------666-555-333-6~~--------|


Intro x2
e|---------------------------------------------------------|
B|---------------------------------------------------------|
G|---------------------------------------------------------|
D|-----555333--------555333---------555333---------5-3-6-5-|
A|-3-3-------6-5------------6-5------------6-5-6-6---------|
E|---------------6-6------------5-5------------------------|

Verse
e|--------------------------------------------------------|
B|--------------------------------------------------------|
G|-444-------------------------444------------------------|
D|-555-777-666-444-7~~---------555-777-666-444-7~~--------|
A|-333-888-777-555-8~~---------333-888-777-555-8~~--------|
E|-----666-555-333-6~~-------------666-555-333-6~~--------|

Fill
e|--------------------------------------------------------|
B|--------------------------------------------------------|
G|----------------------------------------4-----7---------|
D|----------------------------------------5--5--8--7------|
A|----------------------------------------3--6--6--8------|
E|-------------------------------------------4-----6------|

Chorus
e|--------------------------------------------------------|
B|--------------------------------------------------------|
G|-4444-----------8888-7777----4444-----------8888-7777---|
D|-5555-4444-8888-8888-7777----5555-4444-8888-8888-7777---|
A|-3333-5555-8888-6666-5555----3333-5555-8888-6666-5555---|
E|------4444-6666-------------------4444-6666-------------|


Verse
e|--------------------------------------------------------|
B|--------------------------------------------------------|
G|-444-------------------------444------------------------|
D|-555-777-666-444-7~~---------555-777-666-444-7~~--------|
A|-333-888-777-555-8~~---------333-888-777-555-8~~--------|
E|-----666-555-333-6~~-------------666-555-333-6~~--------|

Fill
e|--------------------------------------------------------|
B|--------------------------------------------------------|
G|----------------------------------------4-----7---------|
D|----------------------------------------5--5--8--7------|
A|----------------------------------------3--6--6--8------|
E|-------------------------------------------4-----6------|

Chorus
e|--------------------------------------------------------|
B|--------------------------------------------------------|
G|-4444-----------8888-7777----4444-----------8888-7777---|
D|-5555-4444-8888-8888-7777----5555-4444-8888-8888-7777---|
A|-3333-5555-8888-6666-5555----3333-5555-8888-6666-5555---|
E|------4444-6666-------------------4444-6666-------------|

Bridge
e|--------------------------------------------------------|
B|--------------------------------------------------------|
G|--------------------------------------------------------|
D|--------------------------------------------------------|
A|-----3333----------------------3333-5555-6666-8888------|
E|----------6666-5555-3333-6666---------------------------|
PM    **********************************************

Interlude (fill no.2)
e|--------------------------------------------------------|
B|--------------------------------------------------------|
G|-4-----7--------4------7--------------4---7-------4-----|
D|-5--5--8--7-----5--5---8--7-----------5---8--7-7--5-----|
A|-3--6--6--8-----3--6---6--8-----------3---6--8-8--3-----|
E|----4-----6--------4------6------------------6-6--------|

Chorus x2
e|--------------------------------------------------------|
B|--------------------------------------------------------|
G|-4444-----------8888-7777----4444-----------8888-7777---|
D|-5555-4444-8888-8888-7777----5555-4444-8888-8888-7777---|
A|-3333-5555-8888-6666-5555----3333-5555-8888-6666-5555---|
E|------4444-6666-------------------4444-6666-------------|

Intro x2
e|---------------------------------------------------------|
B|---------------------------------------------------------|
G|---------------------------------------------------------|
D|-----555333--------555333---------555333---------5-3-6-5-|
A|-3-3-------6-5------------6-5------------6-5-6-6---------|
E|---------------6-6------------5-5------------------------|

on the last intro
Fill
e|--------------------------------------------------------|
B|--------------------------------------------------------|
G|----------------------------------------4-----7---------|
D|----------------------------------------5--5--8--7------|
A|----------------------------------------3--6--6--8------|
E|-------------------------------------------4-----6------|

Note: Hold last note

email me at [email protected]


Текст, аккорды и табулатура для песни "Take The Reins Live", исполняет "Tsunami Bomb".
Используемые в песне аккорды можно найти в разделе Как брать аккорды. Аккорды для шестиструнной гитары. Другие песни можно найти на нашем сайте, воспользовавшись алфавитным указателем вверху страницы.


 
Ошибка в тексте? Выделите ошибку и нажмите Ctrl+Enter