STANDARD TUNING
~ = let ring
x = palm mute

Intro

e|-----------------------|
B|-----------------------|
G|-----------------------|
D|--10~---10--8--7--5-8--|
A|--10~---10--8--7--5-8--|
E|--8-~---8---6--5--3-6--|

Then straight after:
(I think u have to use tremelo picking here cos i think this is done
on one of those wierd effects guitars or sumthin)

e|--------------------------------------------------------------|
B|--------------------------------------------------------------|
G|--------------------------------------------------------------| X2
D|--55-33-11-0------55-33-11-0-------55-33-11-0-111-555-333-665-|
A|33--------------11---------------00---------------------------|
E|--------------------------------------------------------------|

Verse 1

e|---------------------------------------------------|
B|---------------------------------------------------|
G|--5-5--555-----------------------------------------| X2
D|--5-5--555-8-8--888-7-7--777-5-5-555-8-8-8-8-8-8-8-|
A|--3-3--333-8-8--888-7-7--777-5-5-555-8-8-8-8-8-8-8-|
E|-----------6-6--666-5-5--555-3-3-333-6-6-6-6-6-6-6-|

Intro

Verse 1

Pre-Chorus
e|-----------------|
B|-----------------|
G|---------8-------|
D|--10--6--8--8-8--|
A|--10--6--6--8-8--|
E|--8---4-----6-6--|

Chorus
(i think this is correct but i'm not 100% sure i've got the picking
right also the picking is done by one guitar and another plays the 
Power chords behind it)

e|----------------------------------------------------------------|
B|----------------------------------------------------------------|
G|----------------------------------------------------------------|X2
D|------10-10-10-10-10-----6-6-6-6-6------8-8-8-8-8-8-8-8-7-7-7-7-|
A|---10----10-10-10-10---6---6-6-6-6----8---8-8-8-8-8-8-8-7-7-7-7-|
E|-8-------8--8--8--8--4-----4-4-4-4--6-----6-6-6-6-6-6-6-5-5-5-5-|

Verse 2

e|----------------------------------------------
B|----------------------------------------------
G|--5-5--555------------------------------------
D|--5-5--555-8-8--888-7-7--777-5-5-555-8-88-8-8-
A|--3-3--333-8-8--888-7-7--777-5-5-555-8-88-8-8-
E|-----------6-6--666-5-5--555-3-3-333-6-66-6-6-

----------------------------------------------|
----------------------------------------------|
-5-5-555/-7-7--777-8-8-8/---------------------|
-5-5-555/-7-7--777-8-8-8/--5-5-555-8-88-8-8---|
-3-3-333/-5-5--555-6-6-6/--5-5-555-8-88-8-8---|
---------------------------3-3-333-6-66-6-6---|

Pre-Chorus

Chorus

Bridge

e|------------------------------------------
B|------------------------------------------
G|------------------------------------------
D|--10-10-10-10-10-10-10-10-8-8-8-8-8-8-8-8-
A|--10-10-10-10-10-10-10-10-8-8-8-8-8-8-8-8-
E|--8--8--8--8--8--8--8--8--6-6-6-6-6-6-6-6-

-----------------------------------|
-----------------------------------|
-----------------------------------| X2
--7-7-7-7-7-7-7-7-5-5-5-5-8-8-8-8--|
--7-7-7-7-7-7-7-7-5-5-5-5-8-8-8-8--|
--5-5-5-5-5-5-5-5-3-3-3-3-6-6-6-6--|

On the second time the other guitar plays:

e|---------------------------|
B|---------------------------|
G|--5-5/-7-7/-8-8/-10-10-12--|
D|--5-5/-7-7/-8-8/-10-10-12--|
A|--3-3/-5-5/-6-6/-8--8--10--|
E|---------------------------|

Pre-Chorus X 2

CHorus X 2

Intro 

Outro

e|-----------------------|
B|-----------------------|
G|--5---8----------------|
D|--5---8--8-8-10---10/--|
A|--3---6--8-8-10---10/--|
E|---------6-6-8----8/---|

OK ima pretty sure this ones right! :D tabbed by KELSEY!!


Текст, аккорды и табулатура для песни "Take The Reins", исполняет "Tsunami Bomb".
Используемые в песне аккорды можно найти в разделе Как брать аккорды. Аккорды для шестиструнной гитары. Другие песни можно найти на нашем сайте, воспользовавшись алфавитным указателем вверху страницы.


 
Ошибка в тексте? Выделите ошибку и нажмите Ctrl+Enter