Tsunami Bomb: Take the Reins

this is their new song and its got a great solo at the start which sounds
great and is simple to play. listen to the song to get the strumming pattern
but i tried to get it as close as i could. enjoy!!!!!!

intro

e----------------
b----------------
g----------------     (play twice)
d--9--7--6--4--7-
a--9--7--6--4--7-
e--7--5--4--2--5-

solo at the start

----------------------------------------------------
----------------------------------------------------
----------------------------------------------------
---------------------------------------------------9
---9-7-5-4------9-7-5-4-------9-7-5-4-55-9-7-10-9--9
-77----------55------------44----------------------7

verse

-----------------------
-----------------------
-----------------------   twice then the solo bit
-99--77--66--4444--7777
-99--77--66--4444--7777
-77--55--44--2222--5555

bit before chorus

-----------------
-----------------
-------7---------
-7--7--7--7777--7
-7--7--5--7777--7
-9--5-----5555--9

i dont know the chorus yet but as soon as i do i will put it up.


Текст, аккорды и табулатура для песни "Take The Reins", исполняет "Tsunami Bomb".
Используемые в песне аккорды можно найти в разделе Как брать аккорды. Аккорды для шестиструнной гитары. Другие песни можно найти на нашем сайте, воспользовавшись алфавитным указателем вверху страницы.


 
Ошибка в тексте? Выделите ошибку и нажмите Ctrl+Enter