Song: Cantare Del Morte
Artist: Tsunami Bomb
Album: Mayhem on the High Seas
Tabbed By: [email protected]
Tuning: Standard

INTRO 
|------------------------------------------------------------|
|-------5-6-5---5--------------------------------------------|
|-3/--3-------6---6-5----------------------------------------|
|------------------------------------------------------------|

VERSE 
(Do you remember the days of yore?)
|---------------------|------------------------------------|
|---5-6-5---5---------|------------------------------------|
|-3-------6---6-5-----|-3-----------15--------------------|
|---------------------|------------------------------------|

HIGHER VERSE 
(Yeah, he pulled some pranks, was mean to those he should thank)
|---5-6-5---5------------------------------------|
|-3-------6---6-5-(2 times)----------------------|
|------------------------------------------------|
|------------------------------------------------|

CHORUS 
(Close my eyes and count to three...)
|------------------------------------------------------------|
|--5--4--3--2--5--4--(let ring)--3---------------------------|
|---------------------------------------------15------------|
|------------------------------------------------------------|

BRIDGE
|------------------------------------------------------------|
|----------------6-6-5-5-----------------------6-------------|
|-3--3-6--6-5--5---------(repeat a lot)----------------------|
|------------------------------------------------------------|

OUTRO
|----------------------------------------------------------|
|---5---5---5---5---5---5-(repeat as necessary)------------|
|-3---3---3---3---3---3------------------------------------|
|----------------------------------------------------------|

|----------------|
|----5--4--------|
|-3--------2--3--|
|----------------|


Текст, аккорды и табулатура для песни "Cantare Del Morte", исполняет "Tsunami Bomb".
Используемые в песне аккорды можно найти в разделе Как брать аккорды. Аккорды для шестиструнной гитары. Другие песни можно найти на нашем сайте, воспользовавшись алфавитным указателем вверху страницы.


 
Ошибка в тексте? Выделите ошибку и нажмите Ctrl+Enter