Title: 20 Going On
Artist: Tsunami Bomb
Tabbed by: banny    [email protected]

> means repeat numerous times
~ means let it ring

INTRO
G|---------------------------------------------------------
D|---------------------------------------------------------  x2
A|----6~----6-6-6-----8-8----------------------------------
E|-3~----3~-------6-6--------------------------------------

VERSE 1/3
G|---------------------------------------------------------
D|---------------------------------------------------------  x2
A|----6>-8>------------------------------------------------
E|-3>------------------------------------------------------

PRE-CHORUS 1
G|---------------------------------------------------------
D|---------------------------------------------------------
A|-------5---5-6-------5---6-5-------5---5-6-6>-8>---------
E|-3-3-3---6-----3-3-3---6-----3-3-3---6-------------------

INTRO x1

VERSE 2

G|---------------------------------------------------------
D|---------------------------------------------------------  x2
A|-----5-5--------5-5-6>-----5-5----6>-8>------------------
E|-3-3-----6>-3-3--------3-3-----6>------------------------

PRE-CHORUS 1

PRE-CHORUS 2
G|---------------------------------------------------------
D|---------------------------------------------------------  IT SLIPS AWAY!
A|-6-6-----------------------------------------------------
E|---------------------------------------------------------

CHORUS
G|---------------------------------------------------------
D|---------------------------------------------------------
A|------5---5-6-6------5---5-6-6------5---5-6>-8>----------
E|-3-3~---6-------3-3~---6-------3-3~---6---------1-3------

VERSE 1/3 x2
PRE-CHORUS 1
PRE CHORUS 2
CHORUS

BRIDGE
G|---------------------------------------------------------
D|---------------------------------------------------------  x4
A|-6-6-6-6-------------------------------------------------
E|---------0~-3~-------------------------------------------

INTRO

LEAD IN
G|---------------------------------------------------------
D|---------------------------------------------------------
A|-6>------------------------------------------------------
E|---------------------------------------------------------

PRE CHORUS 2 x2

FINAL CHORUS
G|---------------------------------------------------------
D|---------------------------------------------------------
A|----5---5-6>----5---5-6>----5---5-6>-8>------------------
E|-3>---6------3>---6------3>---6---------3~---------------


Текст, аккорды и табулатура для песни "20 Going On", исполняет "Tsunami Bomb".
Используемые в песне аккорды можно найти в разделе Как брать аккорды. Аккорды для шестиструнной гитары. Другие песни можно найти на нашем сайте, воспользовавшись алфавитным указателем вверху страницы.


 
Ошибка в тексте? Выделите ошибку и нажмите Ctrl+Enter