Trust Company - Hover
Submitted By: Andreas Karlsson
EMail: [email protected]


Hi!
I listened to this song last night and I tought that I should
tab this one! e-mail me if you think it suck or if ya think 
it's ok! I have done it with the original tuning, but I know
that trust co. dont play with it!


Intro (begin at 0:05)
g||-------------------------------------------
d||-------------------------------------------
a||-------------------------------------------x4
e||99999999/1212121212121212/5555555555555555-

Chorus 0:26 (without voice)
g||-------------------------------------------
d||-------------------------------------------
a||-------------------------------------------
e||99999999/1212121212121212/5555555555555555-x4

Verse 0:46
g||-------------------------------------------
d||-------------------------------------------
a||-------------------------------------------
e||4--44-44-44---7--77-77-77------------------x4

Pre-Chorus  1:05
g||-------------------------------------------
d||-------------------------------------------
a||-------------------------------------------
e||4444-4444-4--9-9-9--4444-4444-4--9-9-9-----x1
      1:16
g||-------------------------------------------
d||-------------------------------------------
a||-------------------------------------------
e||4444-4444-4--9-9-9--4444-4444-4--9*--------x1

Chorus 1:24
g||-------------------------------------------
d||-------------------------------------------
a||-------------------------------------------
e||99999999/1212121212121212/5555555555555555-x4

Verse 1:48
g||-------------------------------------------
d||-------------------------------------------
a||-------------------------------------------
e||4--44-44-44---7--77-77-77------------------x4
Pre-Chorus 2:09
g||-------------------------------------------
d||-------------------------------------------
a||-------------------------------------------
e||4444-4444-4--9-9-9--4444-4444-4--9-9-9-----x1
then 2:19
g||-------------------------------------------
d||-------------------------------------------
a||-------------------------------------------
e||4444-4444-4--9-9-9--4444-4444-4--9*--------x1

Chorus 2:31
g||-------------------------------------------
d||-------------------------------------------
a||-------------------------------------------
e||99999999/1212121212121212/5555555555555555-x4

Bridge 2:50
g||-----------------------------------------------
d||-----------------------------------------------
a||-----------------------------------------------
e||44--4-44--4-44--4-44--4-44--4-44--4-44--4-44--4
then 2:52
g||-----------------------------------------------
d||-----------------------------------------------
a||-----------------------------------------------
e||99999-33-99999-33-99999-33-99999-33------------x2
then 3:02
g||-----------------------------------------------
d||-----------------------------------------------
a||-----------------------------------------------
e||99999/33-99999/33-99999/33-99999/33------------x2

Chorus 3:17
g||-------------------------------------------
d||-------------------------------------------
a||-------------------------------------------
e||99999999/1212121212121212/5555555555555555-x4

Outro 3:37
g||-----------------------------------------------
d||-----------------------------------------------
a||-----------------------------------------------
e||44--4-44--4-44--4-44--4-44--4-44--4-44--4-44--4
then 3:47
g||-----------------------------------------------
d||-----------------------------------------------
a||-----------------------------------------------
e||99999/33-99999/33-99999/33-99999/33------------x2

Thats All For Today!
Thanx Al for the beer!
     /Е | /
By:  |_| |*
     | | |  
Andreas Karlsson,Sweden. Bassplayer from the band Downfall!
===========

#---------------------------------PLEASE NOTE----------------------------------#
#This file is the author's own work and represents their interpretation of the #
#song. You may only use this file for private study, scholarship, or research. #
#------------------------------------------------------------------------------#
#------------Created with Taborama Tab Creator-----------------#
#------------------------------------------------------------------------------#

Title: Hover
Artist: Trustcompany
Album: The Lonely Position Of Neutral

Instrument: 4 String Bass

Tabbed by: Lord Headley ([email protected])

Tuning: Dropped D (D A D G)

I figured i would give this song a try.. i think i have most of it right.  
Please tell me if i screw up somewhere.

Intro & Chorus

G|---------------------------------||
D|---------------------------------||
A|---------------------------------||
D|8-8-8-8/-11-11-4-4-4-4-4--------||

Verse

G|------------------------------||
D|------------------------------||
A|------------------------------||
D|3-3-3-3-3--6-6-6-6-6-6--------||

Pre Chorus

G|--------------------------------------||
D|--------------------------------------||
A|----------4-4-4-4-----------4-4-4-4*--||
D|3333-3333---------3333-3333-----------||

Bridge

G|--------------------------------------------------||
D|--------------------------------------------------||
A|--------------------------------------------------||
D|33-3-33-3-33-3-33-3-33-3-33-3-33-3-33-3-----------||

G|-------------------------------------------------------------||
D|-------------------------------------------------------------||
A|44444--44444--44444--44444--44444--44444--44444--44444--4*---||
D|-----33-----33-----33-----33-----33-----33-----33-----33-----||

Order

Intro/Chorus 7x
verse 4x
Pre Chorus 1x
Chorus 4x
Verse 4x
Pre Chorus 1x
Chorus 4x
Bridge 1x
Chorus 7x


Текст, аккорды и табулатура для песни "Hover", исполняет "Trustcompany".
Используемые в песне аккорды можно найти в разделе Как брать аккорды. Аккорды для шестиструнной гитары. Другие песни можно найти на нашем сайте, воспользовавшись алфавитным указателем вверху страницы.


 
Ошибка в тексте? Выделите ошибку и нажмите Ctrl+Enter