The tuning is drop d then a half step down (C#,G#,C#,F#,A#,Eb)

Intro:
Eb|------------------------------------------------------|
A#|------------------------------------------------------|
F#|---------------------------------------------5555555--|Play this 
C#|---------------------------------------------5555555--|4x
G#|-0-22-0-22-0-2-0-22-0-22-0-2-0-22-0-22-0-2-0-3333333--|
C#|-0-22-0-22-0-2-0-22-0-22-0-2-0-22-0-22-0-2-0-3333333--|

Lead guitar over intro: Start on the third time guit. 1 plays intro
|-1212121212121212121212121212^13-13-13-13-13-13-13-13---|
|--------------------------------------------------------|
|-9-9-9-9-9-9-9-9-9-9-9-9-9-9^^10-10-10-10-10-10-10-10---|play 2x 
|--------------------------------------------------------|
|--------------------------------------------------------|
|--------------------------------------------------------|

The Verse is just Bass and drums

Eb|------------------------------------------------------|
A#|------------------------------------------------------|
F#|---------------------------------------------5555555--| 
C#|---------------------------------------------5555555--|
G#|-0-22-0-22-0-2-0-22-0-22-0-2-0-22-0-22-0-2-0-3333333--|
C#|-0-22-0-22-0-2-0-22-0-22-0-2-0-22-0-22-0-2-0-3333333--|

Eb|------------------------------------------------------|
A#|------------------------------------------------------|
F#|----------------------------------------------------xx| 
C#|---------------------------------------------3*3*3*-xx|
G#|-0-22-0-22-0-2-0-22-0-22-0-2-0-22-0-22-0-2-0-3*3*3*-xx|
C#|-0-22-0-22-0-2-0-22-0-22-0-2-0-22-0-22-0-2-0-3*3*3*-xx|

Chorus: They aremt letting the notes ring like i wrote but its too much to write out the strumming. You can figure it out.
|-----------|
|-----------|
|---5~------|2x
|-2~5~-5~-0-|
|-2~3~-5~-0-|
|-2~---5~-0-|

Back to Intro. Then Verse

then to this

|-----------------------------------------------------------------|
|-----------------------------------------------------------------|
|-----------------------------------------------------------------|
|-2-2-------------------2-------------2-2-------------------0-0-3-|
|-2-2-------------------2-------------2-2-------------------0-0-3-|
|-2-2-5*-5*-5*-5*-5*-5*-2-5*-5*-5*-5*-2-2-5*-5*-5*-5*-5*-5*-0-0-3-|

|-----------------------------------------------------|
|-----------------------------------------------------|
|-----------------------------------------------------|
|-2-2-------------------2-------------2-2-------------|
|-2-2-------------------2-------------2-2-------------|
|-2-2-5*-5*-5*-5*-5*-5*-2-5*-5*-5*-5*-2-2-5*-5*-5*-5*-|

Then to Chorus

Bridge:

|---------------|
|---------------|
|---------------|just play that a few times
|---------------|
|-0-2-3^-0-2-3^-|
|-0-2----0-2----|

then back to chorus.

then to

|-----------------------------------------------------------------|
|-----------------------------------------------------------------|
|-----------------------------------------------------------------|
|-2-2-------------------2-------------2-2-------------------0-0-3-|
|-2-2-------------------2-------------2-2-------------------0-0-3-|
|-2-2-5*-5*-5*-5*-5*-5*-2-5*-5*-5*-5*-2-2-5*-5*-5*-5*-5*-5*-0-0-3-|
                                   last time instead of this^^^^^
                                     play what's below
|-----|
|-----|
|-----|
|-0-3-|
|-0-3-|
|-0-3-|


Текст, аккорды и табулатура для песни "Downfall", исполняет "Trustcompany".
Используемые в песне аккорды можно найти в разделе Как брать аккорды. Аккорды для шестиструнной гитары. Другие песни можно найти на нашем сайте, воспользовавшись алфавитным указателем вверху страницы.


 
Ошибка в тексте? Выделите ошибку и нажмите Ctrl+Enter