ARTIST: TRUSTcompany
SONG: Downfall
ALBUM: The Lonely Position Of Neutral
TABBER: Julio Biel

INTRO (I kno that during the intro a second guitar comes in but ill just tab the lead 1)

e|----------------------------------------|
B|----------------------------------------|
G|----------------------------------------|
D|-11-13-13-11-13-13-11-13-13-13-11-13-13-|
A|-11-13-13-11-13-13-11-13-13-13-11-13-13-|
D|-11-13-13-11-13-13-11-13-13-13-11-13-13-|

e|------------------------------------------|
B|------------------------------------------|
G|------------------------------------------|
D|-11-13-13-11-13-13-11-13-13-13-14-14-14---|
A|-11-13-13-11-13-13-11-13-13-13-14-14-14---|
D|-11-13-13-11-13-13-11-13-13-13-14-14-14---|

e|-----------------------------------------------------|
B|-----------------------------------------------------|
G|-----------------------------------------------------|
D|-11-13-13-11-13-13-11-13-13-13-11-13-13-13-13-13-13--|
A|-11-13-13-11-13-13-11-13-13-13-11-13-13-13-13-13-13--|
D|-11-13-13-11-13-13-11-13-13-13-11-13-13-13-13-13-13--|

the first pre-chorus is the same as the intro

CHORUS

e|------------------------------------------|
B|----------x16-----x16-----x16-------------|
G|-x--x-x-8------11-------6---------x16-----|
D|-x--x-x-8------11-------6-------6---------|
A|-x--x-x-6-------9-------4-------6---------|
D|--------------------------------6---------|

The second pre-chorus:

   GTR1                                       GTR2
e|---------------------------------|       e|--------------------|
B|---------------------------------|       B|--------------------|
G|---------------------------------|       G|-6-6-6-6-6-6-6-6-6--|
D|-1-1--1--1-1--1--1-1--1--1-1--2--|       D|-6-6-6-6-6-6-6-6-6--|
A|-1-1--1--1-1--1--1-1--1--1-1--2--|       A|-4-4-4-4-4-4-4-4-4--|
D|-1-1--1--1-1--1--1-1--1--1-1--2--|       D|--------------------|



INTERLUDE

e|--------------------------|
B|--------------------------|
G|--------------------------|(some ppl think this is done
D|--------------------------|by the bass altho bass starts
A|------2------2--------2---|to play in the hard part)
E|-1--1----1-1---1-1-(1)----|

e|--------------------------|
B|--------------------------|
G|------4------4---------4--|
D|-1--1-4--1-1-4-1-1-(1)-4--|
A|-1--1-2--1-1-2-1-1-(1)-2--|
D|-1--1----1-1---1-1-(1)----|

OUTRO   GTR 1                           GTR 2 (yeah...the only part i kno,
                                    i just put it there so u dont get confused)


e|---------------------------------|       e|--------------------|
B|---------------------------------|       B|--------------------|
G|---------------------------------|       G|-6-6-6-6-6-6-6-6-6--|
D|-1-1--1--1-1--1--1-1--1--1-1--2--|       D|-6-6-6-6-6-6-6-6-6--|
A|-1-1--1--1-1--1--1-1--1--1-1--2--|       A|-4-4-4-4-4-4-4-4-4--|
D|-1-1--1--1-1--1--1-1--1--1-1--2--|       D|--------------------|




I think u all can figure out the order if u can understand my tab.........


Текст, аккорды и табулатура для песни "Downfall", исполняет "Trustcompany".
Используемые в песне аккорды можно найти в разделе Как брать аккорды. Аккорды для шестиструнной гитары. Другие песни можно найти на нашем сайте, воспользовавшись алфавитным указателем вверху страницы.


 
Ошибка в тексте? Выделите ошибку и нажмите Ctrl+Enter