artist: treble charger
song: red
tabbed by: Aaron Sadhankar
e-mail: [email protected]

~=let ring ^=bend up (until next note or release)
r=release bend/bend down /=slide up =slide down p=pull off
h= hammer on

INTRO (clean) x3
E------------3------------2---2-----------------------------
B--------------3--------3-------3----------1---1-1p0--------
G--------0-------0----2-----------2------0-----------0------
D------0------------0-------0----------2--------------------
A----2-------------------------------0-------0--------------
E--3-------3------------------------------------------------

(0:30) (after intro)
E-------------------3--3-3--2---2---------------------------
B--------1---1------3--3-3--3-----3----------1---1-1p0------
G------0-------0----0--0-0--2-------2------0-----------0----
D----2-----------2--0--0-0--0------------2------------------
A--3-------3--------2--2-2-------------0-------0------------
E-------------------3--3-3----------------------------------

------------------------------------------------------------
---------1-1p0----------------------------------------------
-------0-------0--------------------------------------------
-----2-----------2------------------------------------------
---3---------------3----------------------------------------
------------------------------------------------------------

riff 1 (0:44) distorted (x2)
E-----------------------------------------------------------
B-----------------------------------------------------------
G---------------5-5-5-5-5-5---------------------------------
D--5-5-5-5-5-5--5-5-5-5-5-5--2-2-2-2-2-2--0-0-0-0-0-0-0-0---
A--5-5-5-5-5-5--3-3-3-3-3-3--2-2-2-2-2-2--7-7-7-7-7-7-7-7---
E--3-3-3-3-3-3---------------0-0-0-0-0-0--5-5-5-5-5-5-5-5---

riff 2 (1:11)
E-----------------------------------------------------------
B--8~~~10~~~12~~~5~~~5-5-5-5-5------------------------------
G--10^~12^~~14^~~7^~~~~~~~~~~~~4p5-5-5-5-5-5-42-0(x2)------
D-----------------------------------------------------------
A-----------------------------------------------------------
E-----------------------------------------------------------

------------------------------------------------------------
---8~~~10~~~12~~~5~~~5-5-5-5-5------------------------------
---10^~12^~~14^~~7^~~~~~~~~~~~~4p5-5-5-5-5-5-5/7-7/9-9p7(x2)
------------------------------------------------------------
------------------------------------------------------------
------------------------------------------------------------

(1:38) (clean) (x2)
E--3-3-3-3-3-3-3-3--2-2-2-2-2-2-2-2--0-0-0-0-0-0-0-0--------
B--3-3-3-3-3-3-3-3--3-3-3-3-3-3-3-3--1-1-1-1-1-1-1-1--------
G--0-0-0-0-0-0-0-0--2-2-2-2-2-2-2-2--0-0-0-0-0-0-0-0--------
D--0-0-0-0-0-0-0-0--0-0-0-0-0-0-0-0--2-2-2-2-2-2-2-2--------
A--2-2-2-2-2-2-2-2-------------------0-0-0-0-0-0-0-0--------
E--3-3-3-3-3-3-3-3------------------------------------------

(1:57)
E--0-0-0-0-0-0-0-0--3-3-3--2-2-2-2-2-2--0-0-0-0-0-0-0-0-----
B--1-1-1-1-1-1-1-1--3-3-3--3-3-3-3-3-3--2-2-2-2-2-2-2-2-----
G--0-0-0-0-0-0-0-0--0-0-0--2-2-2-2-2-2--0-0-0-0-0-0-0-0-----
D--2-2-2-2-2-2-2-2--0-0-0--0-0-0-0-0-0--2-2-2-2-2-2-2-2-----
A--3-3-3-3-3-3-3-3--2-2-2---------------0-0-0-0-0-0-0-0-----
E-------------------3-3-3-----------------------------------

---0-0-0-0-0-0----------------------------------------------
---1-1-1-1-1-1----------------------------------------------
---0-0-0-0-0-0----------------------------------------------
---2-2-2-2-2-2----------------------------------------------
---3-3-3-3-3-3----------------------------------------------
------------------------------------------------------------

(2:11) riff 1 (x2)

(2:38) solo: For those of you who know how to solo it's in the key of E 
minor. The following is a rough idea of what is done in the song.
E-----------------------------------------------------------
B-----------------------------------------------------------
G--------12-12h14-14p12-12----------12h14-14^14 14 14r-12h14
D--12h14-------------------14p12-12~------------------------
A-----------------------------------------------------------
E-----------------------------------------------------------

------------------------------------------------------------
-------------------------------15--15--15--15--1412-12~~~--
---14^~~~14r-p12~~-------12h14-14^-14^-14^-14^--------------
-------------------12h14------------------------------------
------------------------------------------------------------
------------------------------------------------------------

------------------------------------------------------------
------------------------------------------------------------
----------12h14-14p12-12-----------------12/14-14^ 14r~14p12
-12-12h14----------------h14-14~14p12----------------------
--------------------------------------12^------------------
------------------------------------------------------------

------------------------------------------------------------
------------------------------------------------------------
---12h14-14-14-12-12-12h14-14p12-12-------------------------
------------------------------------14-14p12-12-12----------
------------------------------------------------------------
------------------------------------------------------------

(3:01) riff 1 (x2)
(3:28) riff 2

(3:55) outro
E-----------------------------------------------------------
B--8~~~10~~~12~~~5~~~5-5-5-5-5------------------------------
G--10^~12^~~14^~~7^~~~~~~~~~~~~4p5-5-5-5-5-5-42-0(x2)------
D-----------------------------------------------------------
A-----------------------------------------------------------
E-----------------------------------------------------------

------------------------------------------------------------
---8~~~10~~~12--12-12--------------12--12-12----------------
---10^~12^~~14^ 14 14 14r-12-12h14-14^ 14 14 14r-12-12h14---
------------------------------------------------------------
------------------------------------------------------------
------------------------------------------------------------

------------------------------------------------------------
---12--12-12------------------------------------------------
---14^ 14 14 14r-12-14^~-12---------------------------------
------------------------------------------------------------
------------------------------------------------------------
------------------------------------------------------------

I had to learn and tab this song by ear, so there may be a few 
mistakes.


Текст, аккорды и табулатура для песни "Red", исполняет "Treble Charger".
Используемые в песне аккорды можно найти в разделе Как брать аккорды. Аккорды для шестиструнной гитары. Другие песни можно найти на нашем сайте, воспользовавшись алфавитным указателем вверху страницы.


 
Ошибка в тексте? Выделите ошибку и нажмите Ctrl+Enter