Favorite Worst enemy
Bass tab
Wide Awake Bored
Treble Charger
tabbed by Jd Dude

Intro:
|-----------------------------------------------------------------
|-----------------------------------------------------------------
|-----------------------------------------------2---2-2-2-2-2-2-2-
|-4--4-4-2--2-2---2-2-2-2-2-2-2---4--4-4-2--2-2-------------------

verse:
|---------------------------
|---------------------------
|------O------O------O--O-O-
|-2--2---O--O---2--2--------

Prechorus/during guitar solo (with senses overflowing...):
|---------------------------------
|---------------------------------
|-----------------4---4-4-5---5-5-
|-4---4-4-5---5-5-----------------

|----------------------------------------------
|----------------------------------------------
|----------------------------------------------
|4--4-4-5--5-5-2---2-2-2-2-2-2-1---1-1-1-1-1-1-

Prechorus 2 (and it's driving me crazy...)
|-------------------------------         |-------------------------------
|------------------------------- 2x then |-------------------------------
|-7-7-7-5-4---------------6-----         |-------------------------------
|-----------5---5-5-5-5-5-------         |-O---O-O-O-O-O-5---5-5-5-5-5-5-

|-------------------------------
|-------------------------------
|-7---7-7-7-7-7-----------------
|---------------5---5-5-5-5-5-5-

Chorus ('Cause there's something about you...):
|-----------------------------------------
|-----------------------------------------
|-------------------------5-5-5-5-7-7-7-7-
|-5-5-5-5-5-5-4-4-4-4-4-4-----------------

|-----------------------------------------
|-----------------------------------------
|-------------------------5-5-5-5-7-7-7-7-
|-5-5-5-5-5-5-2-2-2-2-2-2-----------------

Bridge 1 (When you sat there....):
|----------------------------------------------------------------
|----------------------------------------------------------------
|----------------------------------------------------------------
|2-2-2-2-2-2-2-2-2-2-2-2-2-2-2-2-5-5-5-5-5-5-5-5-5-5-5-5-5-5-5-5-

|----------------------------------------------------------
|----------------------------------------------------------
|--------------------------------5---5---5---4-5---5---5---
|7-7-7-7-7-7-7-7-7-7-7-7-7-7-7-7---------------------------


Текст, аккорды и табулатура для песни "Favorite Worst Enemy", исполняет "Treble Charger".
Используемые в песне аккорды можно найти в разделе Как брать аккорды. Аккорды для шестиструнной гитары. Другие песни можно найти на нашем сайте, воспользовавшись алфавитным указателем вверху страницы.


 
Ошибка в тексте? Выделите ошибку и нажмите Ctrl+Enter