Travis - Writing To Reach You
Submitted By: Putrushkah
EMail: [email protected]

Tuning: Standard (Capo On 2nd. fret)
(All notes are relative to capo)

Chords For gtr. 2:
            E A D G B e

Em7         0 2 2 0 3 3
G           3 2 0 0 3 3
Dsus4       x x 0 2 3 3
D           x x 0 2 3 2
Dsus2       x x 0 2 3 0
Cadd9       X 3 2 0 3 3
G/F#        2 x 0 0 3 3
B7          x 2 1 2 0 0
A7          x 0 2 0 2 0
Am          x 0 2 2 1 0
D7          x x 0 2 1 2
D/E         x x x 0 0 0

Intro

Gtr. 1
        with Trem eff..........................|
|--------------------------------------------------------
|--------------------------------------------3-----------
|----------------------------------2----4----------------
|--------------------------------------------------------
|--------------------------------------------------------
|-------0------------------------------------------------
 
  one, two, three, forth

Gtr. 2 : Em7   G    Dsus4    D

Gtr. 1
Fill 1.........................|
|-------------------------------|---------------------------------
|-------------------------------|---------------------------------
|-12----11-11-11-9---9-9-7--7-7-|-12----11-11-11-9--9-9-9-9-11----
|---X20-------------------------|---X20---------------------------
|-10----9--9--9--7---7-7-5--5-5-|-10----9--9--9--7--7-7-7-7-9-----
|-------------------------------|---------------------------------

Verse 1

Gtr. out
Gtr. Cont. same as intro.

Chorus 1

|--------|-----------------|-----------------|----0------------|-----------------|
|--------|----3-------3----|----3-------3----|------------3----|----0------------|
|-2s4--2-|--0---0---2---2--|--0---0---2---2--|--0-------0------|--0--------------|
|--------|-0-0---0-0-0---0-|-0-0---0-0-0---0-|-2-2-----2-2-----|-2-2-------------|
|--------|-----------------|-----------------|-----------------|-----------------|
|--------|-----------------|-----------------|-----------------|-----------------|

|-----------------|-------------------|-----------------------|
|----0-------2---2|----2-------------1|----1------------------|
|--0-------0---0--|--0---0--2s4-2--2--|--2---2s4-2~~~---------|
|-2-2-----2-2---2-|---2---2-------2-2-|---2-------------------|
|-----------------|-------------------|-----------------------|
|-----------------|-------------------|-----------------------|

Gtr. On chorus Plays:

G       Dsus4
G       Dsus4
Cadd9   G  G/F#  
Em7     B7
Em      A7
Am      D7

Verse 2 

Gtr. 1:
|------------------------------
|-3h5---------------3h5---3----
|----------------2h4-----------
|------------------------------ X4
|------------------------------
|------------------------------

Gtr. same as intro

Chorus 2

Gtr. 1

|--------|-----------------|-----------------|----0------------|-----------------|
|--------|----3-------3----|----3-------3----|------------3----|----0-------0----|
|-2s4--2-|--0---0---2---2--|--0---0---2---2--|--0-------0------|--0-------0------|
|--------|-0-0---0-0-0---0-|-0-0---0-0-0---0-|-2-2-----2-2-----|-2-2-----2-2-----|
|--------|-----------------|-----------------|-----------------|-----------------|
|--------|-----------------|-----------------|-----------------|-----------------|

|-----------------|-------------------|-------------2---2|---2--------------|
|----0-------2---2|----2-------------1|----1----------1--|-1---1-----------1|
|--0-------0---0--|--0---0--2s4-2--2--|--2---2s4-2-2---2-|--2---2-2s4-2--2--|
|-2-2-----2-2---2-|---2---2-------2-2-|---2--------------|--------------2-2-|
|-----------------|-------------------|------------------|------------------|
|-----------------|-------------------|------------------|------------------||----------------|
|-1---1----------|
|---2---2s4-2~~~-|
|----2-----------|
|----------------|
|----------------|

Gtr. 2 on chorus 2

G       Dsus4
G       Dsus4
Cadd9   G  G/F#  
Em7     B7
Em      A7
Am      D7
Am      D7

Gtr. Solo
Gtr. Plays Fill 1(X4)
Gtr. 2 same as intro

Verse 3

Gtr. 1

with Trem Eff.             |------------X2------------|
|-------------------------------------------------------
|---------------------3~~--3h5-------3h5----3-----------
|------------0~~--2~~-------------2h4-------------------
|-0~~~~-------------------------------------------------
|-------------------------------------------------------
|-------------------------------------------------------


Chorus 3

Gtr. 1

|--------|-----------------|-----------------|----0------------|-----------------|
|--------|----3-------3----|----3-------3----|------------3----|----0-------0----|
|-2s4--2-|--0---0---2---2--|--0---0---2---2--|--0-------0------|--0-------0------|
|--------|-0-0---0-0-0---0-|-0-0---0-0-0---0-|-2-2-----2-2-----|-2-2-----2-2-----|
|--------|-----------------|-----------------|-----------------|-----------------|
|--------|-----------------|-----------------|-----------------|-----------------|

                                     |------------------X 3----------------|
|-----------------|------------------|-------------2---2|---2--------------|
|----0-------2---2|---2-------------1|----1----------1--|-1---1-----------1|
|--0-------0---0--|-0---0--2s4-2--2--|--2---2s4-2-2---2-|--2---2-2s4-2--2--|
|-2-2-----2-2---2-|--2---2-------2-2-|---2--------------|--------------2-2-|
|-----------------|------------------|------------------|------------------|
|-----------------|------------------|------------------|------------------||--------------2---2|---2-------------|
|-----1----------1--|-1---1-----------|
|---2---2s4-2-2---2-|--2---2-2h4~~~~--|
|----2--------------|-----------------|
|-------------------|-----------------|
|-------------------|-----------------|

Gtr. 2 On chorus 3

G       Dsus4
G       Dsus4
Cadd9   G  G/F#  
Em7     B7
Em      A7
Am      D7
Am      D7
Am      D7
Am      D7
Am      D7

Outro:

Gtr. 1:

Rit...........................
|-----------------------------
|-----5-3---5-3---------------
|-2-4-----4-----4-2-0~~~~~~---
|-----------------------------
|-----------------------------
|-----------------------------

Gtr. On outro plays:

Em7    G    Dsus4  D   Dsus2  D/E

C

Just listen the song for timing.
This tab is 95 % correct.
Any question mail me:
[email protected]


Текст, аккорды и табулатура для песни "Writing To Reach You", исполняет "Travis".
Используемые в песне аккорды можно найти в разделе Как брать аккорды. Аккорды для шестиструнной гитары. Другие песни можно найти на нашем сайте, воспользовавшись алфавитным указателем вверху страницы.


 
Ошибка в тексте? Выделите ошибку и нажмите Ctrl+Enter