Song:      Turn
Artist:    Travis
Album:     The Man Who
Tabbed by: Jason Mangan
Date:      6-2-2001

Bass should be in standard tuning, low to high E, A, D, G.

Intro:
|----------------|----------------|----------------|----------------|
|----------------|----------------|----------------|----------------|
|7-7-7-7-7-7-7---|7-7-7-7-7-7-7---|7-7-7-7-7-7-7---|7-7-7-7-7-7-7---|
|--------------7-|--------------7-|--------------7-|--------------7-|
1 * 2 * 3 * 4 *  1 * 2 * 3 * 4 *  1 * 2 * 3 * 4 *  1 * 2 * 3 * 4 *

1st & 2nd Verses:
|----------------|----------------|----------------|----------------|
|----------------|----------------|----------------|----------------|
|----------------|----------------|----------------|----------------|
|0-0-0-0-0-0-0-0-|0-0-0-0-5-5-5-4-|5-5-5-5-5-5-5-5-|5-5-5-5-0-0-0-0-|(x2)
1 * 2 * 3 * 4 *  1 * 2 * 3 * 4 *  1 * 2 * 3 * 4 *  1 * 2 * 3 * 4 *

1st & 2nd Pre-choruses:
|----------------|----------------|----------------|----------------|
|----------------|----------------|----------------|----------------|
|7-7-7-7-7-7-7---|7-7-7-7-7-7-7---|7-7-7(7)--------|----------------|
|--------------7-|--------------7-|--------7-7-7-7-|5-5(5)5-5-5-4-4-|
1 * 2 * 3 * 4 *  1 * 2 * 3 * 4 *  1 * 2 * 3 * 4 *  1 * 2 * 3 * 4 *

|----------------|----------------|----------------|----------------|
|----------------|----------------|----------------|----------------|
|----------------|----------------|----------------|----------------|
|2-2-2-2-2-2-2-0-|2-2-2-2-2-2-2-0-|2-2-2-2-2-2-2-2/|7-7-7-7-5-5-5-5-|
1 * 2 * 3 * 4 *  1 * 2 * 3 * 4 *  1 * 2 * 3 * 4 *  1 * 2 * 3 * 4 *

|----------------|
|----------------|
|----------------|
|4-4-4-4-2-2-2-2-|
1 * 2 * 3 * 4 *

1st & 2nd Choruses:
|----------------|----------------|----------------|----------------|
|----------------|----------------|----------------|----------------|
|----------------|7-7-7-7-4-4-4(4)|----------------|7-7-7-7-777-7777|
|5-5-5-5-7-7-7-7-|--------------7-|5-5-5-5-7-7-7-7-|----------------|
1 * 2 * 3 * 4 *  1 * 2 * 3 * 4 *  1 * 2 * 3 * 4 *  1 * 2 * 3 * 4 *

                                                      2nd time
|----------------|----------------|----------------| |------------------|
|----------------|----------------|----------------| |------------------|
|----------------|7-7-7(7)4-4-4-4-|----------------| |7-7-7-777-77---77-|
|5-5-5-5-7-7-7-7-|----------------|5-5-5-5-7-7--(7)| |------------------|
1 * 2 * 3 * 4 *  1 * 2 * 3 * 4 *  1 * 2 * 3 * 4 *    1 * 2 * 3  *  4 *

(Play alternate notes in parenthesis 2nd time around)

Middle 8:
|----------------|----------------|--------------------|-----------------------------|
|----------------|----------------|--------------------|-----------------------------|
|--------4-4-4-4-|6-6-6-6-7-7-7-7-|9-9-9-9-11-11-11-11-|12-12-12-12-14141414141414---|
|7-7-7-7---------|----------------|--------------------|-----------------------------|
1 * 2 * 3 * 4 *  1 * 2 * 3 * 4 *  1 * 2 * 3  *  4  *   1  *  2  *  3   *   4 
   *

|----------------|----------------|----------------|----------------|
|----------------|----------------|----------------|----------------|
|----------------|7-7-7-7-4-4-4-4-|----------------|7-7-7-7-7-7-7-7-|
|5------57-7-7---|----------------|5-5-5-5-7-7-7-7-|----------------|
1 * 2 * 3 * 4 *  1 * 2 * 3 * 4 *  1 * 2 * 3 * 4 *  1 * 2 * 3 * 4 *

3rd Chorus:
|----------------|----------------|----------------|-----------------|
|----------------|----------------|----------------|-----------------|
|----------------|7-7-7-7-4-4-4-4-|----------------|7-7-7-777--77-77-|
|5-5-5-5-7-7-7-7-|----------------|5-5-5-5-7-7-7-7-|-----------------|
1 * 2 * 3 * 4 *  1 * 2 * 3 * 4 *  1 * 2 * 3 * 4 *  1 * 2 * 3 * 4  *

|----------------|----------------|----------------|----------------|
|----------------|----------------|----------------|----------------|
|----------------|7-7-7-7-4-4-4-4-|----------------|----------------|
|5-5-5-5-7-7-7-7-|----------------|5---5--55-5---55|7-7-7-7-5-5-5-5-|
1 * 2 * 3 * 4 *  1 * 2 * 3 * 4 *  1 * 2 * 3 * 4 *  1 * 2 * 3 * 4 *

|----------------|
|----------------|
|----------------|
|4-4-4-4-2-2-2-2-|
1 * 2 * 3 * 4 *

Outro:
|----------------|----------------|----------------|----------------|
|----------------|----------------|----------------|----------------|
|7-7-7-7-7-7-7---|7-7-7-7-7-7-7---|7-7-7-7-7-7-7---|7-7-7-7-7-7-7---|
|--------------7-|--------------7-|--------------7-|--------------7-|
1 * 2 * 3 * 4 *  1 * 2 * 3 * 4 *  1 * 2 * 3 * 4 *  1 * 2 * 3 * 4 *

|----------------|----------------|----------------|----------------|
|----------------|----------------|----------------|----------------|
|----------------|----------------|----------------|----------------|
|0-0-0-0-0-0-0-0-|0-0-0-0-0-0-0-0-|0-0-0-0-0-0-0-0-|0-0-0-0-0-------|
1 * 2 * 3 * 4 *  1 * 2 * 3 * 4 *  1 * 2 * 3 * 4 *  1 * 2 * 3 * 4 *

Basic stuff but a great song!

The End.


Текст, аккорды и табулатура для песни "Turn", исполняет "Travis".
Используемые в песне аккорды можно найти в разделе Как брать аккорды. Аккорды для шестиструнной гитары. Другие песни можно найти на нашем сайте, воспользовавшись алфавитным указателем вверху страницы.


 
Ошибка в тексте? Выделите ошибку и нажмите Ctrl+Enter