Travis
Sing

This sound right to me, but you will have to listen to the song for the right timing

here..........
*= let it ring
Riff 1
|---------------------------
|---------------------------
|----------0-2*-0-2-0-2-2---
|--2-2---2------------------

Riff 2
|---------------------------
|----0-2*-0-2-0-------------
|--2------------2-2---------
|---------------------------

Riff 3
|---------------------------
|----0-2*-0-2-0-------------
|--2------------------------
|----------------2-2--------
Riff 3
|---------------------------
|---------------------------
|----0-2*-0-2-0-------------
|--2------------------------      


Текст, аккорды и табулатура для песни "Sing", исполняет "Travis".
Используемые в песне аккорды можно найти в разделе Как брать аккорды. Аккорды для шестиструнной гитары. Другие песни можно найти на нашем сайте, воспользовавшись алфавитным указателем вверху страницы.


 
Ошибка в тексте? Выделите ошибку и нажмите Ctrl+Enter