Вступление:
    F	      G		  C	    F
e|--------------------------------------------|
B|--1---3-3---1--3-3------0---1-1---0--1-1----|
G|--2---2-2---0--0-0------0---0-0---2--2-2----| x3
D|--3---3-3---0--0-0------2---2-2---3--3-3----|
A|--------------------------------------------|
E|--------------------------------------------|

    F	      G			G
e|------------------------|
B|--1---3-3---1--3-3------|
G|--2---2-2---0--0-0------|
D|--3---3-3---0--0-0------|
A|------------------------|
E|------------------------|

  C			G
When will you carry me home
Dm		      F
like the wounded star in a movie
when will you carry me home
take it back to the start when you move me
C			     G
'cause when you talk to me that way
Dm			     Am
 i'll be a million miles away
C			   G      F
i guess it's just another day in love

Припев:
C	    G     Dm
We're battleships
		F
drifting in an alley river
C     G     Dm
takin hits
	       F
sinking, it's now or never
C       G     Dm
   overboard...
	 F	      G        F
drowning in a sea of love and hate
    G         F
but it's too late
 G	F   C
battleship down


Verse 2:
when will you figure it out
that you're not always right, little darling
when will you figure it out
that it's not worth the fight, little darling
'cause when you can't think what to say
you go and throw it all away
i guess it's just another day in love

Chorus:
battleships
drifting in an alley river
takin hits
sinking, it's now or never
overboard, drowning in a sea of love and hate
but it's too late
battleship down


Bridge:Play the intro again

but you're too smart
and i'm too dumb
with no heart in the middle


Chorus:
battleships
drifting in an alley river
takin hits
sinking, it's now or never
overboard, falling into the ocean
ship to shore, drowning in a sea of love and hate
but it's too late
battleship down


Текст, аккорды и табулатура для песни "Battleships", исполняет "Travis".
Используемые в песне аккорды можно найти в разделе Как брать аккорды. Аккорды для шестиструнной гитары. Другие песни можно найти на нашем сайте, воспользовавшись алфавитным указателем вверху страницы.


 
Ошибка в тексте? Выделите ошибку и нажмите Ctrl+Enter