Song: When All is Said and Done
Artist: Trapt
Album: Trapt (self-titled)
Tabbed By: Tyler Snedigar
Email: [email protected]
Tuning: (from low to high) Db,Ab,Db,Gb,Bb,Eb
Legend:
	#- very, VERY brief pause
	x- muted string
	h- hammer on
	p- pull off
	~- let note ring 
Intro:
With distortion
|-------------|-------------------------------------------------|
|-------------|-------------------------------------------------|
|-------------|---------------------------------------------x2--|
|-12-12-12-12-|-6-6-#-6-6-#-6-#-6h8--3-3-#-3-3-#-3-#-3h5--------|
|-10-10-10-10-|-6-6-#-6-6-#-6-#-6h8--3-3-#-3-3-#-3-#-3h5--------|
|-10-10-10-10-|-6-6-#-6-6-#-6-#-6h8--3-3-#-3-3-#-3-#-3h5--------|

Verse 1
|--------------------------------------------------------------------|
|--------------------------------------------------------------------|
|--------------------------------------------------------------------|
|-12-12-12-12-12-12-12-12--6-6-#-6-6-#-6-#-6h8--3-3-#-3-3-#-3-#-3h5--|
|-10-10-10-10-10-10-10-10--6-6-#-6-6-#-6-#-6h8--3-3-#-3-3-#-3-#-3h5--|
|-10-10-10-10-10-10-10-10--6-6-#-6-6-#-6-#-6h8--3-3-#-3-3-#-3-#-3h5--|

Chorus
|---------------------|----------------------------------|
|---------------------|----------------------------------|
|-----------------x4--|------------------------------x2--|
|-10-#-10--8-#-6------|-10-#-10--13-#-13--6-#-6--3~------|
|-10-#-10--8-#-6------|-10-#-10--13-#-13--6-#-6--3~------|
|-10-#-10--8-#-6------|-10-#-10--13-#-13--6-#-6--3~------|

Interlude
|-------------------------|-------------------------------------------|
|-------------------------|----------------------------------------x2-|
|-----------------12------|-------------------------------------------|
|------------10-----10----|-6-6-#-6-6-#-6-#-6h8--3-3-#-3-3-#-3-#-3h5--|
|-------10------10--------|-6-6-#-6-6-#-6-#-6h8--3-3-#-3-3-#-3-#-3h5--|
|-10-10----10-------------|-6-6-#-6-6-#-6-#-6h8--3-3-#-3-3-#-3-#-3h5--|

Verse 2
|--------------------------------------------------------------------|
|--------------------------------------------------------------------|
|------------------------------------------------------------x2------|
|---12--------6-6-#-6-6-#-6-#-6h8--3-3-#-3-3-#-3-#-3h5---------------|
|---10-x8-----6-6-#-6-6-#-6-#-6h8--3-3-#-3-3-#-3-#-3h5---------------|
|---10--------6-6-#-6-6-#-6-#-6h8--3-3-#-3-3-#-3-#-3h5---------------|




Chorus
|---------------------|-----------------------------------|
|-----------------x4--|-----------------------------------|
|---------------------|------------------------------x4---|
|-10-#-10--8-#-6------|-10-#-10--13-#-13--6-#-6--3~-------|
|-10-#-10--8-#-6------|-10-#-10--13-#-13--6-#-6--3~-------|
|-10-#-10--8-#-6------|-10-#-10--13-#-13--6-#-6--3~-------|

Bridge
|--------------------------------------------------------------------|
|--------------------------------------------------------------------|
|-----------------------------------------------------------------x3-|
|-----12~-----12~-----10~---10~-----12~-----12~-----10~-----10~------|
|---10------10------8-----8-------10------10------8-------8----------|
|-10------10------8-----8-------10------10------8-------8------------|

Pre-chorus
|--------------|
|--------------|
|--------------|
|-12-12-12-12--|
|-10-10-10-10--|
|-10-10-10-10--|

Chorus
|---------------------|-----------------------------------|
|---------------------|-----------------------------------|
|------------------x4-|------------------------------x4---|
|-10-#-10--8-#-6------|-10-#-10--13-#-13--6-#-6--3~-------|
|-10-#-10--8-#-6------|-10-#-10--13-#-13--6-#-6--3~-------|
|-10-#-10--8-#-6------|-10-#-10--13-#-13--6-#-6--3~-------|

Outro
|---------------------------------------|
|---------------------------------------|
|---------------------------------------|
|-12--12--12--12--12--12--12--1212------|
|-10--10--10--10--10--10--10--1010------|
|-10--10--10--10--10--10--10--1010------|


Текст, аккорды и табулатура для песни "When All Is Said And Done", исполняет "Trapt".
Используемые в песне аккорды можно найти в разделе Как брать аккорды. Аккорды для шестиструнной гитары. Другие песни можно найти на нашем сайте, воспользовавшись алфавитным указателем вверху страницы.


 
Ошибка в тексте? Выделите ошибку и нажмите Ctrl+Enter