The other versions were OK, but this is what I hear.  Sorry its a little long,
but I'm pretty sure its very complete.
Its my first tab so leave some comments if its good, or if it sucks for that matter.

Notation:
 - natural harmonic
~~ - vibrato
/  - slide into note
tr - tremolo pick

INTRO			        CHORUS

Gt.1                            Gt.1 & 2 
[A]                          6X [B]	                  4X [C]          1X
|----0-------------0-------|------------------------|-------------0---0-|
|------4---4---------4---4-----|------------------------|-------------0-0---|
|----4-------4-----4-------4---|-6-6--2-2-2--4-4--4-6-2-|-6-6--4-4--2-2-----|
|------------------------------|-6-6--2-2-2--4-4--4-6-2-|-6-6--4-4--2-2-----|
|--4-----------4-2-----------2-|-4-4--0-0-0--2-2--2-4-0-|-4-4--2-2--0-0-----|
|------------------------------|-4-4--0-0-0--2-2--2-4-0-|-4-4--2-2--0-0-----|
Gt.2 plays harmonic every other time
                             
PRE-VERSE
Gt.1 plays [A] 3X, then
|-------0-------|
|-----4---4-----|
|---4-------4---|
|---------------|
|-4-----------2-|
|---------------| 
Gt.2
[D]                       [E]			     
|-7~~--------------------|-7~~----------9-----9-|
|----7-----79-----------|----7-----7/9---7/9---|
|------9-8-----8-6-8-64-|------9-8-------------|  2X
|------------------------|----------------------|
|------------------------|----------------------|
|------------------------|----------------------|

VERSE 1
Gt.1 plays [A] 4X
Gt.2 plays [D] 3X, then [E]

CHORUS 
Gt.1 & 2 play [B] 4X
Gt.1 
[F]                         4X
|----------------------------|
|----------------------------|
|-6-6-6--2-2-2---------------| 
|-6-6-6--2-2-2--2-2-2--4-4-4-|
|-4-4-4--0-0-0--2-2-2--4-4-4-|
|-4-4-4--0-0-0--0-0-0--2-2-2-|

Gt. 2                      4X
|-0-4--0-5-0-5--0-2--0-2-0-2-|
|----------------------------|
|----------------------------|
|----------------------------|
|----------------------------|
|----------------------------|

Gt.1 & 2 play [C]

BRIDGE
Gt.1                                        
|-------------------------------0--0--0--0-|
|---2-----2-2-------------------4--5--4--0-|
|--4--------------4-4-----4-4---4--4--4--4-|   2X
|-2---2-2-----2-2-----2-2-------2--2--2--2-|
|------------------------------------------|
|------------------------------------------|

Gt.1                                             Gt.2 last 3X
|-----------------------------0--0--0--0-|       |-14tr-12tr-15tr-12tr|
|---2---2-2-------------------4--5--5--4-|       |--------------------|
|--4------------4-4-----4-4---4--4--4--4-|   4X  |--------------------|
|-2---2-----2-2-----2-2-------2--2--2--2-|       |--------------------|
|----------------------------------------|       |--------------------|
|----------------------------------------|       |--------------------|

Gt. 1 & 2 play [A]6X, then [B]4X, then [F]6X

OUTRO
Gt.1 plays [F] 4X
Gt.2
|-7~~----------------7~~------------------7~~----------------|
|----7---7/9------------7---7/9--------------7---7/9---------|
|------9-----8-6-8-6------9-----8-6-8-9-6------9-----8-6-8-6-|
|------------------------------------------------------------|
|------------------------------------------------------------|
|------------------------------------------------------------|

|---------------------------------------------------------|
|---------------------------------------------------------|
|---------9-11-13-11-9-------------9---------13----11---9-|
|-9-11-13--------------13-11-13-11--------13----11----9---|
|-------------------------------------11-----------------|
|---------------------------------------------------------|

|-------------0------0-0--------|
|-------------0--0-0-----0-0----|
|-6-6--4-4--2-2-----------------|
|-6-6--4-4--2-2--------------2~~|
|-4-4--2-2--0-0-----------------|
|-4-4--2-2--0-0-----------------|


Текст, аккорды и табулатура для песни "These Walls", исполняет "Trapt".
Используемые в песне аккорды можно найти в разделе Как брать аккорды. Аккорды для шестиструнной гитары. Другие песни можно найти на нашем сайте, воспользовавшись алфавитным указателем вверху страницы.


 
Ошибка в тексте? Выделите ошибку и нажмите Ctrl+Enter