key
P=pull off
H=hammer on
~ =Vibrato
im only 12 but i kick ass on guitar I have alot of tabs heres one of them

                                   STORIES


                 ACOUSTIC GTR.1

-----------------------------------------|
-----------------------------------------|
-4-4-44--4444--44-4-44-44--4-4-4-4-6-X-X-|
-----------------------------------------|
-2-2-22--2222--22-2-22-22--2-2-2-2-4-X-X-|
-----------------------------------------|

----------------------------------------|
-8-8---8-8----8-8---8-8-8-8-------------|
----------------------------------------|
-4-6---6-6----6-6---6-6-6-7-------------|
----------------------------------------|
----------------------------------------|

  GTR.2 ELEC. CLEAN TONE        AT THE SAME TIME AS GTR.1
-----------------------------------------|
-5-7---4-4--5~~~~~~-4--------------------|
----------------------4------------------|     4X
-----------------------------------------|
-----------------------------------------|
-----------------------------------------|


---------------------------------------------------------------------|
---------------------------------------------------------------------|
-8--8-8---11--11-11-11--11-11--11--11-11-11-11-11---11-11-11-11-11---| :|
-6--6-6----9---9--9--9---9--9---9---9--9--9--9--9---11-11-11-11-11---|
-7--7-7----7---7--7--7---9--9---9---9--9--9--9--9---11-11-11-11-11-0-|
-----------0-------------7--7---7---7--7--7--7--7----9--9--9--9--9-0-|


-----------------------------------------|
-----------------------------------------|
-8---8-X-X-4--4-4-4-4--------------------|
-6---6-X-X-2--2-2-2-2--------------------|
-6---6-X-X----2-2-2-2--0-----------------|
-0------------0-0-0-0--------------------|


-----------------------------------------|
-----------------------------------------|
-----------------------------------------|
-9---9-9-9-11---11-11-11-11-11-----------|
-9---9-9-9-11---11-11-11-11-11-----------|
-7---7-7-7--9----9--9--9--9--9----0------|
AFTER DONE WITH THE MEASER ABOVE GO BACK TO THIS :| NEXT TO IT AND REPEAT IT 3X

----------------------------------0------|
---------------2------------------0------|
----------------------------------4------|
----------------------------2-----2------|
-0---0---0----------0-------------0------|
-----------------------------------------|


-----------------------------------------|
-----------------------------------------|
--9------8-------6------4----------------|
-----------------------------------------|
-----0-------0------0--------------------|
-----------------------------------------|

-----0---0-----------0---0-----------------|
-----0---0---0-------0---0-----------------|
-----4---4---4--8--8-8---8-----------------|
-4-4-4---4-4-4--8--8-8---8-8---------------|
-2-2-------2-2--6--6-------6---------------|
-2-2-------2-------------------------------| |
                                            |
                                            |     4X
------0---0---------0-------------------------|
------0---0---------0-----0-------------------|
------4---4---------4-----4-------------------|
-2--2-2---2-2--2--2-2-----2---2---------------|
-2--2-------2--2--2-----------2---------------|
-0--0-------0--0--0---------------------------|


-------------11-12----12-12-11-----------|
-12~~~~~~-14-------------------14--------|
-----------------------------------------|
-----------------------------------------|
-----------------------------------------|
-----------------------------------------|

-------------11-12-14-12-11----11-12-14--|
-12~~~~~~-14----------------14-----------|
-----------------------------------------|
-----------------------------------------|
-----------------------------------------|
-----------------------------------------|

-------------11-12---12-12-11------------|
-12~~~~~~-14-------------------14--------|
-----------------------------------------|
-----------------------------------------|
-----------------------------------------|
-----------------------------------------|


-------------11-12-11------------11------|
-12~~~~~~-14----------12------------12---|
-----------------------------------------|
-----------------------------------------|
-----------------------------------------|
-----------------------------------------|

     ACUOSTIC GTR.1  P.M.
-0----------------------------------------|
-0----------------------------------------|
-4-----------------4----------------------|
-4---4-4-4-4-4-4---4--4-------------------|
-2---2-2-2-2-2-2---2--2-------------------|
-0-----------------0--0-------------------|


-0----------------------------------------|
-0----------------------------------------|
-8----------------------------------------|
-8---8-8-8-8-8----2--2--------------------|
-6---6-6-6-6-6----2--2--------------------|
------------------------------------------|

-----------------------------------------|
-----------------------------------------|
---------------------------------4-4-----|
---------------------------------2-2-----|
-2-------------------------------2-2-----|
-0---------------------------------------|

-----------------------------------------|
-----------------------------------------|
-4---------------------------------------|
-2---------------------------------------|
-2---------------------------------------|
-----------------------------------0---0-|


-----------------------------------------|
-----------------------------------------|
----------------------------------4--4---|
-2-2-2-2-2-2-2-2-2-2-2-2-2-2-2----2--2---|
-2-2-2-2-2-2-2-2-2-2-2-2-2-2-2----2--2---|
-0-0-0-0-0-0-0-0-0-0-0-0-0-0-0-----------|

------------------------------------------|
------------------------------------------|
----------4-4------------4----------------|
----------2-2------------2----------------|
-2--------2-2------------2----------------|
-0-----------------------0----------------|

-14------------------14------------------|
-----------------------------------------|
-----------------------------------------|
-----------------------------------------|
-----------------------------------------|
-----------------------------------------|

         ELEC. GTR. 1  LEAD
----19--------------------------------------|
-17----17-16-17-16-14----14----17-----------|
----------------------------16----16~~~~~~~-|
--------------------------------------------|
--------------------------------------------|
--------------------------------------------|
                                                   5X OR 4X

-----------------------------------------|
---14----17------------------------------|
16----16----16~~~~~~~----16--------------|
-----------------------------------------|
-----------------------------------------|
-----------------------------------------|


-------------------------0---------------|
-------------2-----------0---------------|
-------------------------4---------------|
-----2---------------2---2---------------|
-0-------0-------0-------0---------------|
-----------------------------------------|

-----------------------------------------|
-----------------------------------------|
-9-----8-----6------4--------------------|
-----------------------------------------|
----0-----0-----0------------------------|
-----------------------------------------|

    STRIKE UP ON THE BAR CHORD
---------------------------------0---------|
---------------------------------0---------|
----------------------4----------2---------|
----------------------2----------2---------|
-7---6---6---4--------2----------4---------|
-0-------0-------0---------------4---------|

STRIKE UP

-0-----------0-----------------------------|
-0-----------0-----------------------------|
-2-----------2-----------------------------|
-2-----------2-----------------------------|
-4-----------4-----------------------------|
-4-----------4-----------------------------|

-----------------------------------------|
-----------------------------------------|
-----------------------------------------|
-----------------------------------------|
-7-----6-----4-----2---------------------|
----0-----0-----0------------------------|

OK ALL DONE ITS PERFECT  I CHECKED I PLAYED IT ITS EASY AND JUST IN CASE I DID MISTAKE 
WERE E-MAIL ME          [email protected]
                                    GOOD LUCK AND ROCK HARD


Текст, аккорды и табулатура для песни "Stories", исполняет "Trapt".
Используемые в песне аккорды можно найти в разделе Как брать аккорды. Аккорды для шестиструнной гитары. Другие песни можно найти на нашем сайте, воспользовавшись алфавитным указателем вверху страницы.


 
Ошибка в тексте? Выделите ошибку и нажмите Ctrl+Enter