Title: Hopeless
Artist: Train
Tabbed by: TANANA (PANCHO PEPE )  
any questions about the tab heres my mail [email protected]
Enjoy its a great tab



Intro
|--------------------------------------|
|---2-----0h2p0-----0h2--------0h2p0-2-|
|---2---2-------2---2---2------2-----2-|
|-----------------0-------0--0---------|
|-----0--------------------------------|
|-2------------------------------------|

Intro (cont.)
|--------------------------------0h2p0-------|
|-----0h2p0-------0--2---0h2-------------0---|
|---2-------2---2--------2---2-------------2-|
|----------------------0-------0-------0-----|
|-------------0------------------------------|
|-2------------------------------------------|


1st Verse - Rhythm

|--------------------------------------|-----------------------------
|---2-----0h2p0-----0h2--------0h2p0---|-----0h2p0-------0-2---0h2---
|---2---2-------2---2---2------2-----2-|---2-------2---2-------2---2-
|-----------------0-------0--0---------|---------------------0-------
|-----0--------------------------------|-------------0---------------
|-2------------------------------------|-2---------------------------

1st verse - Rhythm (cont.)
--0h2p0-------|------------------------------0-------|-------------
----------0---|---2-----0h2p0-----0h2--------0h2p0-2-|-----0h2p0---
------------2-|---2---2-------2---2---2------------2-|---2-------2-
0-------0-----|-----------------0-------0--0---------|-------------
--------------|-----0--------------------------------|-------------
--------------|-2------------------------------------|-2-----------

1st verse - Rhythm (cont.)
------------------0---------|
----0-2---0h2---------2-----|
--2-------2---2---------2---|
--------0-------0---0-----0-|
0---------------------------|
----------------------------|


2nd Verse - Rhythm
Repeat 1st Verse

2nd Verse - Lead (play 2x)
 
|-------------------|
|-----------------7-|
|-6-----6/76-----6-|
|-7---------------7-|
|-------------------|
|-------------------|


Bridge - Rhythm (strum chords according to the song)

|-0-|-0-|-0-|-0-|-0-|-0-0h2p0-------0-|-0-|-0-|-0-|-0-|-0-|-0-0-0-|
|-0-|-0-|-2-|-0-|-0-|-2-------3---0-0-|-0-|-0-|-2-|-0-|-0-|-2-3-3-|
|-1-|-4-|-2-|-1-|-4-|-2---------2-----|-1-|-4-|-2-|-1-|-4-|-2-2-2-|
|-2-|-4-|-0-|-2-|-4-|-0---------------|-2-|-4-|-0-|-2-|-4-|-0-0-0-|
|-2-|-X-|-X-|-2-|-X-|-X---------------|-2-|-X-|-X-|-2-|-X-|-X-X-X-|
|-0-|-2-|-X-|-0-|-2-|-X---------------|-0-|-2-|-X-|-0-|-2-|-X-X-X-|

Bridge - Lead
|-----------------------------------------------------------|
|-----32-----------32-32---------32-----------32-32---|
|-2/9-----1/2---2/9---------2---2/9-----1/2---2/9---------2-|
|---------------------------------------1/2-----------------|
|-----------------------------------------------------------|
|-----------------------------------------------------------|


Chorus - Rhythm (strum chords according to the song)
Fig1.(Play 3x) Fig2(Play 1x)
|-2-|-5-|-5-|---|-2-|-5-|---------0-|
|-2-|-5-|-5-|---|-2-|-5-|---2-------|
|-2-|-6-|-6-|---|-2-|-6-|-2---2-----|
|-4-|-7-|-7-|---|-4-|-7-|-0-----0---|
|-4-|-7-|-5-|---|-4-|-7-|-----------|
|-2-|-5-|-X-|---|-2-|-5-|-----------|

Chorus - Lead
|-2-5-5--------2-5-5-----------------------|
|-2-5-5--------2-5-7---------------6/76-7-|
|-2-6-6-6/76--2-6-6-2/14-13/14----------6-|
|-4-7-7--------4-7-7------------14-------7-|
|-4-7-5--------4-7-5---------------------5-|
|-2-5-X--------2-5-X-----------------------|


Interlude - Rhythm
|--------------------------------------|--------------------------0-----
|---2-----0h2p0-----0h2--------0h2p0-2-|-----0h2p0-------0--2-------2---
|---2---2-------2---2---2------2-----2-|---2-------2---2--------2-----2-
|-----------------0-------0--0---------|----------------------0---------
|-----0--------------------------------|-------------0------------------
|-2------------------------------------|-2------------------------------

Interlude - Rhythm (cont.)
-0-----0-----0-|-------0-------0-------0-----0-------0-----0-------0-----0-
---2-----2-----|---2-------2-------2-----2-------2-----2-------2-----2-----
-----2-----2---|-----2-------2-------2-----2-------2-------------2-----2---
---------------|-------------------------------0---------0---0-------------
---------------|-----------------0-----------------------------------------
---------------|-2-------2-------------------------------------------------

Interlude - Rhythm (cont.)
-------0-------0-------0-----0-------5-----4-----0-----0-|
---2-------2-------2-----2-------2-----2-----2-----3p2---|
-----2-------2-------2-----2-------2-----2-----2---------|
-------------------------------0-------------------------|
-----------------0---------------------------------------|
-2-------2-----------------------------------------------|

Interlude - Rhythm (cont.)
Play 1st Verse

Interlude - Lead
|------------------------------109---------
|----------109---------7-9/10------109/10-
|-6/76---------96-4/6---------------------
|-------------------------------------------
|-------------------------------------------
|-------------------------------------------

Interlude - Lead (cont.)
---------------------------------|
-7---------7-----7-------------7-|
-6--6/76----6-----6----6/76--6-|
-7-------------7-----7---------7-|
---------------------------------|
---------------------------------|


Play Bridge

Play Chorus


Solo - Rhythm
Strum these a bunch each, then repeat
|-0-|-5-|
|-0-|-5-|
|-2-|-6-|
|-2-|-7-|
|-0-|-5-|
|-0-|-X-|

Solo - Lead
|----------------------------------
|--------------------------32-32-
|-1/2/9--1/2-9/109--1/2/9---------
|----------------------------------
|----------------------------------
|----------------------------------

Solo - Lead (cont.)
-------------------------------------------|
--------9/10-10/12--10/12-12/14--12/1410-|
6/7-7/9------------9-----------------------|
-------------------------------------------|
-------------------------------------------|
-------------------------------------------|

Play Chorus


Outtro - Rhythm
|-------------------------------0---------|
|-----0h2p0-------0-2---0h2---------2-----|
|---2-------2---2-------2---2---------2---|
|---------------------0-------0---0-----0-|
|-------------0---------------------------|
|-2---------------------------------------|


Текст, аккорды и табулатура для песни "Hopeless", исполняет "Train".
Используемые в песне аккорды можно найти в разделе Как брать аккорды. Аккорды для шестиструнной гитары. Другие песни можно найти на нашем сайте, воспользовавшись алфавитным указателем вверху страницы.


 
Ошибка в тексте? Выделите ошибку и нажмите Ctrl+Enter