Song: Drops of jupiter
Artist: Train

most notes sustain so hold all out

(0:48)
|--------------------|----------|----------|----------|
|--------------------|----------|----------|----------|
|--------------------|-5-------|----------|-3--------|
|-3--------------5---|----------|-1--------|----------|

                      it comes back here on ?
|--------------------|-----------------|------------|-----------|r
|--------------------|--------------7--|-/12--------|-3--------|e
|--------------------|-5--------/9-----|------------|-----------|s
|-3--------------5---|-----------------|------------|-----------|t

Second verse
|-----------|----------------|----------|---------------|-----------|
|-----------|----------------|----------|---------------|-----------|
|-3-----3-2-|----------------|----------|-------------0-|-3----3-5--|
|-----------|-3-------5----|-1--------|-1-----0-1-3---|-----------|

|------------|------------|----------------|------------|--------|
|-5--7---2--|-3----------|-----3------4-5-|------------|--------|
|------------|---------3--|----------------|-3------3-5-|--------|
|------------|------------|-1-1------------|------------|-3----3-|

                          2nd Pre-Chorus(2:00)
|----------|-------------|-------------|-------------|------3--2-|
|----------|-------------|-------------|-------------|-----------|
|----------|-------------|-------------|-5--5-5-5----|-----------|
|-1--1-----|-1----r--1-3-|-3--3--3-3-5-|-----------0-|-1---------|

|-------------|---------------|  -  -  -   |
|-------------|---------------|  -  - -  -  |
|-3-----3-3-5-|---------------| - back to ? - | then chorus
|-------------|-3------3-3--5-|-   -     -   -|

sorry its not complete but whatever


Текст, аккорды и табулатура для песни "Drops Of Jupiter", исполняет "Train".
Используемые в песне аккорды можно найти в разделе Как брать аккорды. Аккорды для шестиструнной гитары. Другие песни можно найти на нашем сайте, воспользовавшись алфавитным указателем вверху страницы.


 
Ошибка в тексте? Выделите ошибку и нажмите Ctrl+Enter