I only just got the new album and i have figured that the majority of this song is based 
Bb and Eb with Abm during the middle eight.

Tabbed by tozzy - [email protected] - please let me know what you think or of any 
etc.  Thanks.

Chords= Bb
|---1----|--------|-----------|
|---1----|--------|-----------|
|---1----|--------|----3------|
|---1----|--------|----3------|
|---1----|--------|-----------|
|---1----|--------|-----------|

Eb=

|---6----|--------|-----------|
|---6----|--------|-----------|
|---6----|--------|----8------|
|---6----|--------|----8------|
|---6----|--------|-----------|
|---6----|--------|-----------|

Abm=

|---4----|--------|-----------|
|---4----|--------|-----------|
|---4----|--------|-----------|
|---4----|----7---|-----------|
|---4----|--------|----6------|
|---4----|--------|----6------|

Cm=

|---3----|--------|-----------|
|---3----|----4---|-----------|
|---3----|--------|----5------|
|---3----|--------|----5------|
|---3----|--------|-----------|
|---3----|--------|-----------|

Verse=

          Bb                       Eb
I need a sign to let me know your here
                Bb                                Eb
all of these lines are being crossed over the atmosphere
            Bb                               Eb
i need to know, that things are going to look up
                 Bb                             Eb
cos i feel us drowning in a sea spilled from a cup

      Abm                          Cm
And there is no place safe and no safe place to put my head
      Abm                         Cm                    Eb
when u can feel the world shake, from the words that i said.


Chorus= Bb & Eb throughout

And i, calling all angels

And i, calling all you angels

(and i wont give up if you dont give up)x4


Verse 2 (chords as verse 1)=

I need a sign to let me know your here,

cos my tv set just keeps it all from being clear

I want a reason for the way things have to be

I need a hand top help build up some kinda hope inside of me


Chorus x1

(this bridge is Abm and Cm throughout and finish on Eb)
When children have to play inside so they dont dissapear

While private eyes sought marriage lies cos we dont talk for years

And football teams are kissing queens and losing sight of having dreams

In a world where what we want is only what we want until it ours

Chorus until finish.


Текст, аккорды и табулатура для песни "Calling All Angels", исполняет "Train".
Используемые в песне аккорды можно найти в разделе Как брать аккорды. Аккорды для шестиструнной гитары. Другие песни можно найти на нашем сайте, воспользовавшись алфавитным указателем вверху страницы.


 
Ошибка в тексте? Выделите ошибку и нажмите Ctrl+Enter