Bass for Springtime in Vienna
The Tragically Hip
Trouble at the Henhouse

This is my favourite track on this great album (probably their best).
It is pretty easy to play.  I'm also pretty sure the notes are 
100% right.  As an added bonus, I've added the lead guitar part.
I'm sure it's wrong but it sounds good.  I'm not a very good guitarist.

intro/verse...

|-------------------------------|
|-------------------------------|
|---5---5--3---3--2---2-2-2-2---|
|-----5------3------2-----------|

pre-chorus...

|-----------------------------------------------------------|
|-----------------------------------------------------------|
|---5-5-5-5-5-5-5-5-3-3-3-3-3-3-3-3-2-2-2-2-2-2-2-2-2-2-2-2-|
|-----------------------------------------------------------|

chorus...

|---------------------------------------------------------------------------|
|---------------------------------------------------------------------------|
|---------------------------------------------------------------------------|
|-5-5-5-5-5-5-5-5-3-3-3-3-3-3-3-3-10-10-10-10-10-10-10-10-10-10-10-10-10-10-|


The lead guitar riffs throughout the song..... 

|--------------------------------------------------------------------|
|---3/5/7----19----7h8--7/8-5-5-7-0----0-0-2-3-3----3h5-1---1-0------|
|--------------------------------------------------------------------|
|--------------------------------------------------------------------|
|--------------------------------------------------------------------|
|--------------------------------------------------------------------|

If you have any comments or any other bass or guitar tabs from the new album or
the ones before, e-mail me at [email protected]

Enzo Palermo


Текст, аккорды и табулатура для песни "Springtime In Vienna", исполняет "Tragically Hip".
Используемые в песне аккорды можно найти в разделе Как брать аккорды. Аккорды для шестиструнной гитары. Другие песни можно найти на нашем сайте, воспользовавшись алфавитным указателем вверху страницы.


 
Ошибка в тексте? Выделите ошибку и нажмите Ctrl+Enter