Song:		New Orleans is Sinking 
Band:		Tragically Hip
Album:		Up To Here
Submitted By:	Robert Goble comments/corrections at ([email protected])

This is my first try at tab - its probably wrong in a lot of places, but at least
someone attempted it.  If anyone knows how to play anything from Fully Completely,
email me. 

Intro		                   
G|-----------------|
D|-----------------|
A|-----------------|
E|--0---3-3-5-5--|

Main Riff A            	Main Riff B		Main Riff C
G|---------------|	G|---------------|	G|-----------------|
D|---------------|	D|---------------|	D|-----------------|
A|---------------|	A|-------3-3-5-5-|	A|-----7-7-5-5-----|
E|-0-0---3-3-5-5-|	E|-5-5-----------|	E|-0-0---------7-7-|

Chorus Riff A					     
G|-----------------|-----------------|
D|-----------------|-----------------|
A|-----------------|-----------------|
E|-7-7-7-7-7-7-7-6-|-5-5-5-5-5-5-3-5-|

  Fill (Corrections?)			 
G|-----------------------------|
D|-----------------------------|
A|-----------------------------|
E|-5-5-5-3-3-5-3-5-5-5-3-3-5-6-|

Chorus Riff B
G|-----------------|-----------------|----------------------|
D|-----------------|-----------------|----------------------|
A|-----------------|-----------------|----------------------|
E|-7-7-7-7-7-7-7-6-|-5-5-5-5-5-5-5-6-|-7-7-7-7-7-7-7-6-5--|

Structure
Intro 		1X
Main Riff A	7X
Main Riff B	2X
Main Riff A	2X
Chorus Riff A	1X
Main Riff A	10X
Main Riff B	2X
Main Riff A	2X
Chorus Riff A	1X
Main Riff A	6X
Fill		1X
Main Riff A	2X
Chorus Riff A	1X
Main Riff C	34X (or something like that...listen to the recording.)
Fill		1X
Main Riff A	2X
Fill		1X
Main Riff A	2X
Chorus Riff B	1X
Main Riff A	Till the end of song.  There are some variations, play with it.

Key:	/ - slide


Текст, аккорды и табулатура для песни "New Orleans Is Sinking", исполняет "Tragically Hip".
Используемые в песне аккорды можно найти в разделе Как брать аккорды. Аккорды для шестиструнной гитары. Другие песни можно найти на нашем сайте, воспользовавшись алфавитным указателем вверху страницы.


 
Ошибка в тексте? Выделите ошибку и нажмите Ctrl+Enter