By: $im¤n

E-mail:[email protected] 

The Simple Way to begin with
(1:48)
e---------------------------------------14-----------------------|
B--(5/17)---17b19pickpick-17b19p14-17b19-------------------------|
G--(5/17)--------------------------------------------------------|
D----------------------------------------------------------------|
A----------------------------------------------------------------|
E----------------------------------------------------------------|

e---14--16--17-16p14--------------------------------------------------|
B--------------------(17p14)---------------------17-------------------|
G---------------------------16p14vv------14-16b18---16b18-16b18vv-----|
D-----------------------------------/(16)-----------------------------|
A---------------------------------------------------------------------|
E---------------------------------------------------------------------|
(1:54)
Hard to show on tab, listen to the song
e-----------------------------------------------------------------------------|
B----------------------14vvvv-------------------------------------------------|
G-16--14-16-16-14-16-----------14vvv------------------------------------------|
D--------------------------------------16vvp14-11----------------12h14p12-----|
A------------------------------------------------14-12--------(12)----------/-|
E------------------------------------------------------14vvv------------1.5/--|
  								
 (2:01)                         (Doesn't have to be accurate)
e--------------------------------14------14-----14---------14------14-|
B------------------------------14--17p14---17p14--14h17p14---17p14----|
G--------------14---14b16vv-------------------------------------------|
D-7-----/(12)---------------------------------------------------------|
A---9---/(12)---------------------------------------------------------|
E---------------------------------------------------------------------|
              (2:05)
e------14------17b19-17b19-17p14---------------------------------|
B-17p14--17p14-------------------17b19-17-14-18vvv18vvv18vvv-----|
G----------------------------------------------------------------|
D----------------------------------------------------------------|
A----------------------------------------------------------------|
E----------------------------------------------------------------|
(2:09)
Change feel			hold bend w/vibrato
e----------------------------------------------------------------|
B/13/15/-18--20-20b22-21b23-21b23-21b23vvv-----------------------|
G----------------------------------------------------------------|
D----------------------------------------------------------------|
A----------------------------------------------------------------|
E----------------------------------------------------------------|
(2:13)
e---------------------------------------------------------------------|
B---------------------------------------------------------------------|
G-/-13h14h16p14p13h14------------------------------------14h16p14-----|
D-/-------------------16p14-------------------------14h16----------16-|
A---------------------------16p14--------------14-16------------------|
E---------------------------------16p14vv-16-14-----------------------|
                  (2:18)
e---------------------------------------------------------------|
B------------------19b21--(17p)14h17vvv-20b22-18p15h18----------|
G------14h16p14-------------------------------------------------|
D-14h16--------16-----------------------------------------------|
A---------------------------------------------------------------|
E---------------------------------------------------------------|
 (2:23)
e----------------------------(18)-20-20b22r20-18-17-17b18r--15-----|
B---16/18/20-20-20b22picpicpic--------------------------------18-15|
G------------------------------------------------------------------|
D------------------------------------------------------------------|
A------------------------------------------------------------------|
E------------------------------------------------------------------|

e----------------------------------------------------------------|
B--18p15-13p11---10----10---10---9-----9-------------------------|
G----------------12b14-12b14---9-11b13-11b13-11b13vv-------------|
D----------------------------------------------------------------|
A----------------------------------------------------------------|
E----------------------------------------------------------------|


Текст, аккорды и табулатура для песни "Hold The Line", исполняет "Toto".
Используемые в песне аккорды можно найти в разделе Как брать аккорды. Аккорды для шестиструнной гитары. Другие песни можно найти на нашем сайте, воспользовавшись алфавитным указателем вверху страницы.


 
Ошибка в тексте? Выделите ошибку и нажмите Ctrl+Enter