Song: You Lied
Artist: Tool
Album: Salival
Tabbed by: Joel Stillwell ([email protected])

Before any of ya'll read this, I want you all to know this is my first
tab ever.  I've been listening to Tool for forever, and I've been
playing bass for about a year and a half.  *takes breath*  Anyway, on
to the tab...

Tuning (low to high):DADG
Play with a pick, and use a lot of highs.

Intro:  (Use some type of chorus all the way through.  I read that
Justin uses a Boss pedal, but I don't know which one.  Listen to the song
for the rhythm.)

G--11/12--15/14/17/14/15--12/11/9/11/12/11/15/14/17/14/15--12/11---------
D-----------------------------------------------------------------0------
A------------------------------------------------------------------------
D---------------------------------------------------------------------9--

x14 (On the 14th time, play the arpeggio twice, then
go straight into the bridge...)

G--11---------11---------11---------11---------11---------------------
D*-----12---------12---------12---------12---------12-----12---------*
A*-------------------------------------------------------------------*
D----------9----------9----------9----------9----------9--------------
                      *Let all the notes ring out*

Bridge:

G---------------------------
D---------------------------
A---------------------------
D---9-9-8-8-7-7-6/1---------

Main Riff: x3

G---------------------------------------------------
D*-------------------------------------------------*
A*-2--2--0-2-x-x-2--0-2-x-x-2--0-2-x-x-3-2-0-------*
D---------------------------------------------------

Variation on main riff:

G---------------------------------------------------
D-------------------------0-3h2-0-------------------
A--2--2--0-2-x-x-2--0h2h3----------0-2-x-x-3-2-0----
D---------------------------------------------------

Play the main riff x3

Play the variation once

Verse (Part 1):

G---------------------------------------------------
D---------------------------------------------------
A---------------------------------------------------
D-9-9-9-9-9-9-9-9-9-9-9-9-9-9-9-9-9-9-9-9-9-9-9-9---

G-----------------11------11------11-----11-----11-----------
D--------------------12------12------12-----12-----12---12---
A------------------------------------------------------------
D-9-9-9-9-9-9-9-9-------9-------9------9------9-------9------

G-11------11------11------11------12-----------
D----12------12------12------12------12---12---
A----------------------------------------------
D-------9-------9-------9-------9-------9------

Verse (Part 2): x2

G-----------------------------------------------------------
D*----------------------------------------------------------
A*----------------------------------------------------------
D-9-9-9-9-9-9-9-9-9-9-9-9-9-9-9-9-9-9-9-9-9-9-9-9-9-9-9-9---

G---------------------------------------------------------------------
D--------------------------------------------------------------------*
A--------------------------------------------------7------------2/7--*
D-9-9-9-9-9-9-9-9-9-9-9-9-9-9-9-9-9-9-9-9-7-7-7-7-------2-2-2-2-------

Play main riff once

Play the variation once

Play the main riff five times

Play the variation once

Play the verse (Part 1) once

Play the verse (Part 2) twice

Play the main riff nine times

Play the variation once

Solo Riff: x6 (Use a very slight overdrive here.  Justin uses a rat.)

G--------------------------------------------------------------
D*------------------------------------------------------------*
A*-3h2-2--2--2-2-0-2-2--2--0-3h2-2--2--2-2-0-2-2-0-2-2-0-2----*
D--------------------------------------------------------------

Solo Variation: x4 1/2

G-------------------------------------------------------------
D*-----------------------------------------------------------*
A*-3h2-2--2--2-2-2-0-----2-0-----3h2-2--2--2-2-0-2-2--2--0---*
D--------------------3-0-----3-0------------------------------

Last Riff: x2

G-----------------------------------------------------
D*---------------------------------------------------*
A*-2--2--0-2-x-x-2--0-2-x-x-2--2-0-----2-0-----------*
D----------------------------------3-0-----3-0--------

Very last riff:

G---------------------------------------------------------------------------
D---------------------------------------------------------------------------
A-2--2--0-2-x-x-2--3-3--0-2--2--0-2-x-x-2--3-3--0-2--2--0-2-x-x-2--3-3--3-3-
D---------------------------------------------------------------------------

G-------------------------
D-------------------------
A-2--2--0-2-x-x-2--3-3----
D-------------------------

That's it!  All nine minutes of You Lied of Tool's Salival.
Please e-mail any comments, suggestions, or hatemail.


Текст, аккорды и табулатура для песни "You Lied", исполняет "Tool".
Используемые в песне аккорды можно найти в разделе Как брать аккорды. Аккорды для шестиструнной гитары. Другие песни можно найти на нашем сайте, воспользовавшись алфавитным указателем вверху страницы.


 
Ошибка в тексте? Выделите ошибку и нажмите Ctrl+Enter