Artist:   Tool
Title:    Sweat
Album:    Opiate
Track:    1

[Intro] 
   0:10-0:15                            0:15-0:20
E|----(play 4x)-|      E|-----------------------------0-----------|
B|--------------|	B|-----------------------------3-----------|
G|--------------|	G|-----------------------------2-(let ring)|
D|1-0-1-3-4-3-0-|	D|-----------------------------0-----------|
A|1-0-1-3-4-3-0-|	A|-----------------------------0-----------|
D|1-0-1-3-4-3-0-|	D|1--1-1-1-1-----1-0---1-0-0---0-----------|


[Rhythm Figure 1]     
I’m sweating, and breathing, and staring, and thinking, and sinking
Deeper,
and it’s almost like I’m swimming.

The sun is burning hot again, on a hunter and a fisherman, and trying to remember when,
but it makes me dizzy.
				0:20-0:49
E|------------| -----------(play 2x) |-------------------------| X3
B|------------| -------------------- |-------------------------| 
G|------------|:--------------------:|-------------------------| 
D|2----------2|:--------2----------2:|--------2----5-5-5--7-53| 
A|2----------2| --------2----------2 |--------2----5-5-5--7-53| 
D|2--0-2-0-2-2| 0-3-0-2-2--0-1-0-2-2 |0-3-0-2-2--0-5-5-5--7-53| 



[Chorus]
Seems like I’ve been here before
Seems so familiar
Seems like I’m slipping 
Into a dream within a dream
                  0:49-1:01
1|------------------------------------------------| X2
2|------------------------------------------------| 
3|------------------------------------------------| 
4|2----2----2--5--0-5/75--2--0-2--0-2--0--5-5/73| 
5|2--0-2--0-2--5--0-5/75--2--0-2--0-2--0--5-5/73| 
6|2--0-2--0-2--5--0-5/75--2--0-2--0-2--0--5-5/73| 


[Rhythm Figure 2]
It’s the way, you, whisper
                        1:01-1:14
1|0---0---0|------------|0---0---0|------------|  Repeat  |--(let ring)| 
2|3---3---3|/6-6-5-5-5--|3---3---3|------------| bars 1-3 |7-7---------| 
3|2---2---2|/5-5-4-4-4--|2---2---2|5-5---4-4-4-|   then   |6-6---6-----| 
4|0---0---0|/3-3-2-2-2-0|0---0---0|5-5---2-2-2-|   play:  |4-4---6-----| 
5|--3---3--|------------|--3---3--|3-3---2-2-2-|          |4-4---4-----| 
6|---------|------------|---------|------------|          |------------| 
   [Bar1]      [Bar2]      [Bar3]      [Bar4]                  [Bar5] 


[Rythym Figure 1]
The sun is setting cool again, I’m a thinker and a fisherman, and I’m trying to remember when,
but it makes me dizzy.

And I’m sweating, and breathing, and staring, thinking, sinking deeper, and it’s almost like I’m swimming.

                      1:14-1:32
E|------------| -----------(play 2x) |-------------------------| X2
B|------------| -------------------- |-------------------------| 
G|------------|:--------------------:|-------------------------| 
D|2----------2|:--------2----------2:|--------2----5-5-5--7-53| 
A|2----------2| --------2----------2 |--------2----5-5-5--7-53| 
D|2--0-2-0-2-2| 0-3-0-2-2--0-1-0-2-2 |0-3-0-2-2--0-5-5-5--7-53| 


[Chorus]
Seems like I’ve been here before
Seems so familiar
Seems like I’m slipping 
Into a dream within a dream
                    1:32-1:44
E|------------------------------------------------| X2
B|------------------------------------------------| 
G|------------------------------------------------| 
D|2----2----2--5--0-5/75--2--0-2--0-2--5--0-5/73| 
A|2--0-2--0-2--5--0-5/75--2--0-2--0-2--5--0-5/73| 
D|2--0-2--0-2--5--0-5/75--2--0-2--0-2--5--0-5/73| 


[Rhythm Figure 2]
It’s the way, you, whisper
Drag, me, under
Takes me home
                                    1:44-2:10    
E|0---0---0|------------|0---0---0|--------------| Repeat   |(let ring)|  X2
B|3---3---3|/6-6-5-5-5--|3---3---3|--------------| bars 1-3 |7-7-------| 
G|2---2---2|/5-5-4-4-4--|2---2---2|-5-5--4-4-4---| then     |6-6----6--| 
D|0---0---0|/3-3-2-2-2-0|0---0---0|-5-5--2-2-2---| play:    |4-4----6--| 
A|--3---3--|------------|--3---3--|-3-3--2-2-2---|          |4-4----4--| 
D|---------|------------|---------|--------------|          |----------| 
   [Bar1]      [Bar2]      [Bar3]      [Bar4]                  [Bar5] 















       2:10-2:16            
E|------------------|
B|------------------|
G|------------------|
D|2--2--2----3-0-1-0|
A|2--2--2----3-0-1-0|
D|2--2--2----3-0-1-0|

       2:16-2:50
E|----------------------------------(play 2x)---|    E|----(play 4x)-|  (omit
B|----------------------------------------------|    B|--------------|   1-0
G|----------------------------------------------|    G|--------------|    on 
D|2------------2------------2------------3-0-1-0|    D|1-0-1-3-4-3-0-|  first
A|2------------2------------2------------3-0-1-0|    A|1-0-1-3-4-3-0-|   rep)
D|2000000000000200000000000020000000000003-0-1-0|    D|1-0-1-3-4-3-0-|

   2:50-2:52
E|----------|
B|----------|
G|----------|
D|----------|
A|0--0-0-0-0|
D|0--0-0-0-0|

[Chorus]
Seems like I’ve been here before
Seems so familiar
Seems like I’m slipping 
Into a dream within a dream
                    2:52-3:04
E|------------------------------------------------| X2
B|------------------------------------------------| 
G|------------------------------------------------| 
D|2----2----2--5--0-5/75--2--0-2--0-2--5--0-5/73| 
A|2--0-2--0-2--5--0-5/75--2--0-2--0-2--5--0-5/73| 
D|2--0-2--0-2--5--0-5/75--2--0-2--0-2--5--0-5/73| 

[Rhythm Figure 2]
It’s the way, you, whisper
Drag, me, under
Takes me home
                                    3:04-3:29  
E|0---0---0|------------|0---0---0|--------------| Repeat   |--(let ring)| X2
B|3---3---3|/6-6-5-5-5--|3---3---3|--------------| bars 1-3 |7-7---------| 
G|2---2---2|/5-5-4-4-4--|2---2---2|-5-5--4-4-4---| then     |6-6---------| 
D|0---0---0|/3-3-2-2-2-0|0---0---0|-5-5--4-4-4---| play:    |4-4---4-----| 
A|--3---3--|------------|--3---3--|-3-3--2-2-2---|          |4-4---4-----| 
D|---------|------------|---------|--------------|          |------4-----| 
   [Bar1]      [Bar2]      [Bar3]      [Bar4]                  [Bar5] 

         3:29-3:46
E|--(play 2x)|-------|
B|7-7--------|-------|
G|6-6--------|-------|
D|4-4---4----|--2----|
A|4-4---4----|--2----|
D|------4----|--2----|    Cokeman


Текст, аккорды и табулатура для песни "Sweat", исполняет "Tool".
Используемые в песне аккорды можно найти в разделе Как брать аккорды. Аккорды для шестиструнной гитары. Другие песни можно найти на нашем сайте, воспользовавшись алфавитным указателем вверху страницы.


Слушать онлайн Sweat


The Hit Co.Sweat на Яндекс.Музыке


 
Ошибка в тексте? Выделите ошибку и нажмите Ctrl+Enter