Group: Tool
Album: Aenima
Song:  Stinkfist



(intro-electric drums)
-Feedback

|-------------
|-------------
|----(14)---/-
|----(14)---/-
|----(14)---/-
|----(14)---/-
(increase volume knob untill feedback kicks in)

(wait for EXACTLY four bars (4/4 time), then slide down 
and begin the intro)

|----------------------- Chorus
|-----------------------
|-----------------------
|--2-2--5-5-----------5- 
|--2-2--5-5---2-2-2-2-5-
|--2-2--------2-2-2-2---

|------------------------ Riff
|------------------------
|------------------------
|------------------------
|---------5----------5---
|--2--2-22----2--2-22----
.........P.M.............

|----------------------- Chorus (same as intro)
|-----------------------
|-----------------------
|--2-2--5-5-----------5- 
|--2-2--5-5---2-2-2-2-5-
|--2-2--------2-2-2-2---



|--------------------------------------
|--------------------------------------
|--------------------------------------
|--2-2-XX-10-10------------------------
|--2-2-XX-10-10--(0)-12-(0)-xx--2-3-2--
|--2-2----10-10--(0)-12-(0)-xx--2-3-2--


|---------------------------- 
|--------------3^-hold note--
|--------5-5-X-2-------------
|--2-2-X-5-5-X-0-------------
|--2-2-X-3-3-X-0------------- 
|--2-2-X-------0-------------

(repeat chorus)

|----------------------------------
|(10)---(6)(6)---(8)---(3)---------
|-(9)---(5)(5)---(7)---(2)---------
|--7-----3--3-----5-----0----------
|--7-----3--3-----5-----0----------
|--7-----3--3-----5-----0----------

(increase volume knob for feedback)
(pickscrape up the fingerboard keeping the open chord)

-Solo

|-----------------------------------------------------------
|-----------------------------------------------------------
|----9--9--9--9--9--9--9--9--9--9--9--9--9--9--9--9---------
|--12-12-12-12-12-12-12-12-12-12-12-12-12-12-12-12-12-2-----
|-----------------------------------------------------2----- 
|-----------------------------------------------------2----- 

|-----------------------------0-0-0-0-0-0-0-0-0-0-0-0-0-0---
|-----------------------------5-6-6p5-6p5-6p5-6p5-6p5h6p5---
|----9--9--9--9--9--9--9--9---------------------------------
|--12-12-12-12-12-12-12-12-12-------------------------------
|-----------------------------------------------------------
|----------------------------------------------------------- 

|-----------------------------------------------------------
|-----------------------------------------------------------
|----8--8--8--8--8--8--8--8--8--8--8--8--8--8--8--8---------
|--12-12-12-12-12-12-12-12-12-12-12-12-12-12-12-12-12-22222-
|-----------------------------------------------------22222- 
|-----------------------------------------------------22222--
						     palm mute



|---------------------------------------------- 
|---------------------------------------------- 
|--9-9-9-9-11-9-9-9-9----9-9-9-9-11-9-9-9-9----
|--9-9-9-9-11-9-9-9-9-0--9-9-9-9-11-9-9-9-9-0--
|--7-7-7-7-9--7-7-7-7-0--7-7-7-7-9--7-7-7-7-0--
|---------------------0---------------------0--

|----------------------------------------------
|----------------------------------------------
|----------------------------------------------
|--00-00-0--00-00-0-00-00-0-0------------------
|--22-22-0--22-22-0-22-22-0-0------------------
|--00-00-0--00-00-0-00-00-0-0------------------

|-------------------------|---------------------
|-------------------------|---------------------
|-------------------------|--------------------- 
|--12-12/14-14-7-2-2-2-2--|--12-12/14-14-9-7---- 
|--10-10/12-12-5-2-2-2-2--|--10-10/12-12-7-5---- 
|--10-10/12-12-5-2-2-2-2--|--10-10/12-12-7-5----

|------------------------------ 
|--5----5----5----8-8-10-10-7-- 
|--4----4----4----7-7-9--9--6--
|--2-XX-2-XX-2-XX-5-5-7--7--4--
|--2-XX-2-XX-2-XX-5-5-7--7--4-- 
|--2-XX-2-XX-2-XX-5-5-7--7--4-- 

|--------------------------------------
|--------------------------------------
|--------------------------------------
|--2-2-XX-10-10------------------------
|--2-2-XX-10-10--(0)-12-(0)-xx--2-3-2--
|--2-2----10-10--(0)-12-(0)-xx--2-3-2--

|---------------------
|------------------3--
|------------------2--
|--2-2-XX-10-10-------
|--2-2-XX-10-10--0----
|--2-2----10-10--0----
                    

If you follow this tab, you will not be able to play it perfectly.
This is my own perception of how Adam Jones wrote the tab, I have
next to no idea if it is however, correct. Enjoy.


Текст, аккорды и табулатура для песни "Stinkfist", исполняет "Tool".
Используемые в песне аккорды можно найти в разделе Как брать аккорды. Аккорды для шестиструнной гитары. Другие песни можно найти на нашем сайте, воспользовавшись алфавитным указателем вверху страницы.


Слушать онлайн Stinkfist [in the Style of Tool]


The Karaoke UniverseStinkfist [in the Style of Tool] на Яндекс.Музыке


 
Ошибка в тексте? Выделите ошибку и нажмите Ctrl+Enter