Artist= Tool
Album= Lateralus
Song= Schism
Tabbed by Erik, email me at [email protected]
This is the whole song put together for you so enjoy
I was extra careful not to add in any of the bass's
part during the song like most of the tabs out there.
Tuning from low to high= D A D G B E
h = hammer     /=slide up
PM =palm mute  =slide down

     Intro:            
|-------------------------|   |------------------------| Come in after bass              
|-------------------------|   |------------------------| plays for 4 cycles
|-3--2--5--7-3--2--5--7---|x2 |------------------------|x4
|-0--3--5--8-0--3--5--8-0-|   |------------------------|
|-------------------------|   |-----1--0-------1-0-3---|
|-------------------------|   |--1h3-0--0--1h3--0-0-0--|
                              PM.....................

Verse 1:

(listen to song to know when to play notes)
|----------------3----------5-------------------|
|---3--------------3----------3-----------------|
|-----------------------------------------------|x1
|-0----0----------------------------------------|
|-0---------------------------------------------|
|-0---------------------------------------------|
  ^
  Hold for a long time

|------------------------------|
|------------------------------|
|------------------------------|
|--------10-9---------10-9-12--|x4
|---10h12--0-0---10h12--0-0--0-|
|------------------------------|
PM..............................

Interlude 1:
(listen for the different timing)
|------------------------------|
|------------------------------|
|------------------------------| 
|--------10-9---------10-9-12--|x4
|---10h12--0-0---10h12--0-0--0-|
|------------------------------|


Verse 2:

|------------------------------|
|------------------------------|
|------------------------------| 
|--------10-9---------10-9-12--|x8
|---10h12--0-0---10h12--0-0--0-|
|------------------------------|
PM..............................
 

Interlude 2:
|------------------------------|
|------------------------------|
|------------------------------|
|--------10-9---------10-9-12--|x4
|---10h12--0-0---10h12--0-0--0-|
|------------------------------|


Chorus:
|--------------------------------|
|--------------------------------|
|--------------------------------|
|-0-x-x-3-x-x-5-3-x-x-3-5-5------|x4
|-0-x-x-3-x-x-5-3-x-x-3-5-5----5-|
|-0-x-x-3-x-x-5-3-x-x-3-5-5-3h5--|


Verse 3:

|------------------------------|
|------------------------------|
|------------------------------| 
|--------10-9---------10-9-12--|x8
|---10h12--0-0---10h12--0-0--0-|
|------------------------------|
PM..............................

Interlude 3:

|------------------------------|
|------------------------------|
|------------------------------|
|--------10-9---------10-9-12--|x4
|---10h12--0-0---10h12--0-0--0-|
|------------------------------|

|------------------|
|------------------|
|------------------|
|--------10-9-12---|x8
|---10h12--0-0--0--|
|------------------|

Bridge:

|------------------------------------------------------------|
|------------------------------------------------------------|
|--------12-----------14-------------------------------------|
|-14-----------14-----------12-----14------10-----12--10--12-|x12
|----0-0----0-0---0-0----0-0----0-0----0-0-----0-0---0---0---|
|------------------------------------------------------------|
(PM all notes on A sting)


|----------------------------------|
|----------------------------------|
|----------------------------------|
|-------12-12-------12-12----------|x4
|-14-14-------14-14-------14-14-14-|
|----------------------------------|


|----------------------------------------|
|----------------------------------------|
|--10--10---------12---------------------|
|--10--10--10-10--12--7-7-7-7-7-7-7------|x2
|--8---8---10-10--10--7-7-7-7-7-7-7------|
|----------10-10------7-7-7-7-7-7-7------|

|------------------------------------|
|------------------------------------|
|--10--10---------12-----3-----5-----|
|--10--10--10-10--12--0--3--3--5-----|
|--8---8---10-10--10--0--1--3--3-----|
|----------10-10------0-----3--------|

|-----------------------------------|
|-----------------------------------|
|----7------------------------------|
|-0--7---------------------0--------|x3
|-0--5-----7------5------3-0--------|
|-0--0---7---0--5---0--3---0--------|

|----------------------------------------------|
|----------------------------------------------|
|----7-----------------------------------------|
|-0--7-----------------3-x-2-x-x-3-x-2-x-5-x-x-|
|-0--5-----7------5----3-x-2-x-x-3-x-2-x-5-x-x-|
|-0--0---7---0--5---0--3-0-2-0-0-3-0-2-0-5-0-0-|
                       PM......................

|-----------------------------------|
|-----------------------------------|
|-----------------------------------|
|-3-x-2-x-x-3-x-2-x-5-x-x-----------|x3
|-3-x-2-x-x-3-x-2-x-5-x-x-----------|
|-3-0-2-0-0-3-0-2-0-5-0-0-----------|
PM..................................

|-----------------------------------|
|-----------------------------------|
|-----------------------------------|
|-3-x-2-x-x-3-x-2-x-5-x-x-----------|x4
|-3-x-2-x-x-3-x-2-x-5-x-x-----------|
|-3-0-2-0-0-3-0-2-0-5-0-0-----------|



|-----------------------------------|
|-----------------------------------|
|-----------------------------------|
|-----------------------------------|x8
|------5-------7-----3--------------|
|--5h7---0-7h9----0-----0-----------|
Light PM....................


Текст, аккорды и табулатура для песни "Schism (ver 10)", исполняет "Tool".
Используемые в песне аккорды можно найти в разделе Как брать аккорды. Аккорды для шестиструнной гитары. Другие песни можно найти на нашем сайте, воспользовавшись алфавитным указателем вверху страницы.


 
Ошибка в тексте? Выделите ошибку и нажмите Ctrl+Enter