Song: Pushit
Artist: Tool
Album: Aenima
Transcribed by: Jonas Marksell ([email protected])


This song is dropped in D tuning. Some people say that the song begins
with bass but that's not true. This is the CORRECT tab for Pushit.
Almost....



Enter song after 00:48 like this:


G--------I
D--------I
A--------I
D--10-9--I

Verse 1:

/ Clean

G--------------------------I
D--7-----5-----7-----10-9--I
A--0-0-0-0-0-0-0-0-0-------I
D--------------------------I

Chorus:

/w Distortion

G-------------------I
D-------------------I
A-------------------I
D--7--5--7--10-9-0--I

Verse 2:

/ Clean

G-----------9-------------I
D--7-----5----0-0-10-9-0--I
A--0-0-0-0----------------I
D-------------------------I

G--------------9---------I
D--7-x-x-5-x-x---10-9-0--I
A------------------------I
D------------------------I

Chorus:

/w Distortion

G-------------------I
D-------------------I
A-------------------I
D--7--5--7--10-9-0--I

Verse 3:

G--------------------------------------------------I
D--------------------------------------------------I
A--------------------------------------------------I
D--7-7-7-7-7-7-7-7/10-9-0--6-6-6-6-6-6-6-6/10-9-0--I

G--------------------------------------------------I
D--------------------------------------------------I
A--------------------------------------------------I
D--5-5-5-5-5-5-5-5/10-9-0--3-3-3-3-3-3-3-3/10-9-0--I

G--------------------------------------------------------------------------I
D--------------------------------------------------------------------------I
A--------------------------------------------------------------------------I
D--7-7-7-7-7-7-7-7-6-6-6-6-6-6-6-6-3-3-3-3-3-3-3-3-5-5-5-5-5-5-5-5/10-9-0--I

G---------------------------------------------------------------------------I
D---------------------------------------------------------------------------I
A---------------------------------------------------------------------------I
D--3-0-0-0-3-0-0-0-3-0-0-0-3-0-0-0-3-0-0-0-3-0-0-0-3-0-0-0-3-0-0-0-3-0-0-0--I

G----------------------------------------------I
D----------------------------------------------I
A----------------------------------------------I
D--0-0-3-0--0-0-3-0-0-0--0-0-3-0--0-0-3-0-0-0--I

Slow Part:

G-----I
D-----I
A-----I
D--0--I
This part may be off but this is good enough.

G---------------------------I
D--(7)-(7)-(7)-(7)-7-7-7-7--I
A---------------------------I
D---------------------------I

Solo Part:

G----------------------I
D----------------------I
A--~7--~5--~7--10-9-0--I
D----------------------I
Just mess around A LOT with this and you'll get it right.
It is very hard to hear the exact notes he's playing.


G-------------I
D-------------I
A-------------I
D--7-7-7-7-7--I
This is the build up for the part
when sings that beautiful shit...

That goes...

G----------------------I
D----------------------I
A----------------------I
D--7-7--2-2--5-5--0-0--I X2

G----------------------I
D----------------------I
A--0-0-----------------I
D-------2-2--5-5--0-0--I X1


G----------------------I
D----------------------I
A--0-0-----------------I
D-------3-3--5-5--0-0--I X1

G---------------------I
D---------------------I
A---------------------I
D--0-0-0-0-0-0-0-0-0--I

G------------------I
D------------------I
A--0-0-------------I
D-------3-3-10-10--I

Outro:

G---------------------------------------------------------------------------I
D---------------------------------------------------------------------------I
A---------------------------------------------------------------------------I
D--3-0-0-0-3-0-0-0-3-0-0-0-3-0-0-0-3-0-0-0-3-0-0-0-3-0-0-0-3-0-0-0-3-0-0-0--I

G----------------------------------------------I
D----------------------------------------------I
A----------------------------------------------I
D--0-0-3-0--0-0-3-0-0-0--0-0-3-0--0-0-3-0-0-0--I
Mess around with this and you'll get it...

Ending:

G---------------I
D---------------I
A---------------I
D--7--0--10--0--I

G------------------I
D------------------I
A------------------I
D--7--0--10--0--8--I



Thank you....I go die now.....


Текст, аккорды и табулатура для песни "Pushit", исполняет "Tool".
Используемые в песне аккорды можно найти в разделе Как брать аккорды. Аккорды для шестиструнной гитары. Другие песни можно найти на нашем сайте, воспользовавшись алфавитным указателем вверху страницы.


Слушать онлайн Pushit


Vitamin String QuartetPushit на Яндекс.Музыке


 
Ошибка в тексте? Выделите ошибку и нажмите Ctrl+Enter