Band: TOOL
Song: No Quarter (Led Zepplin Cover)
Album: Salival (Houses of the Holy)

Transcriber: Dean Feinstein
E-Mail: 
Well the two tabs combined ended up to be enough to make the song. 
(Plus a lot of listening to the song) I made a couple of changes but 
some stuff is missing more on it soon. I used the previous tabs as inspiration 
so here's a plug for David and Troy:
!!tabbed by David Sirr ([email protected])!! thanks David,
!!tabbed by Troy Koglin ([email protected])!! and thanks Troy.

Intro
|------------------------------------------------| 
|------------------------------------------------| 
|*---10-9----9----------------------------------*| 
|*--------12---10-------------------------------*| 
|-------------------10---12----------------------| 
|--0---------------------------------------------| 

0:15-Repeat this after the 0:20
|-----------------------------------------------| 
|-----------------------------------------------| 
|-5-5-5--7-7--9-9~~----10-9----9----------------| 
|---------------------------12---10-------------| 
|------------------------------------10-12--0---| 
|-------------------------------------------0---|

0:20-Repeat this after the 0:15
|-----------------------------------------------| 
|-----------------------------------------------| 
|--5-5-5--7--0-2-2~~----------------------------| 
|-----------------------------------------------| 
|--------------------12--14-15-14-12--0~--------| 
|--------------------12--14-15-14-12--0~--------|

Pre-Chorus-1:07
|-0-----------------------------0------------------------------------| 
|-5--5-----5-----5-----5-7-8-9--10-10----10-----10-10-10-10-13-8-10--|
|-3----3-----3-----3------------8-----8-----8------------------------| 
|-2------2-----2-----2----------7-------7-----7----------------------| 
|--------------------------------------------------------------------| 
|--------------------------------------------------------------------| 

Chorus Riff 1  
|-----------------------------------------------------------------| 
|-----------------------------------------------------------------| 
|*-5s7-7-7-7--5s7-7-7-7--5s7-7-7---------------------------------*| 
|*-5s7-7-7-7--5s7-7-7-7--5s7-7-7--3h5-5-5-5p3-3-3-3p0-----3p0----*| 
|--3s5-5-5-5--3s5-5-5-5--3s5-5-5--3h5-5-5-5p3-3-3-3p0-3p0---------| 
|---------------------------------3h5-5-5-5p3-3-3-3p0-------------| 





Alt Chorus Riff 1 toward end 
|-------------------------------------------------------------------| 
|-------------------------------------------------------------------| 
|-5s7-7-7-7--5s7-7-7-7--5s7-7-7---5s7-7-7-7s5-5-5-5p0---------------|
|-5s7-7-7-7--5s7-7-7-7--5s7-7-7---3s5-5-5-5s3-3-3-3p0-----3p0-------| 
|-3s5-5-5-5--3s5-5-5-5--3s5-5-5-----------------------3p0-----------| 
|--------------------------------------------------------------3~~--| 


3:58 Riff (Clean) into (Dirty)
|------5-5-5-5-5-5-5--------------8--8--8--8--8--8------| 
|------5-5-5-5-5-5-5--------------8--8--8--8--8--8------| 
|*-5s7-7-7-7-7-7-7-7--------------10-10-10-10-10-10----*| 
|*-5s7-7-7-7-7-7-7-7--3h5-5-5-5s8-10-10-10-10-10-10----*| 
|--3s5-5-5-5-5-5-5-5--3h5-5-5-5s8-8--8--8--8--8--8------| 
|------x-x-x-x-x-x-x--3h5-5-5-5s8-8--8--8--8--8--8------|


6:03 Solo Starts behind above riff


7:15 Riff 
|------------------------------------| 
|------------------------------------| 
|*-----7-10-9---5----2----5-7-10----*| 
|*--0--7-10-9-0-5--0-2--0-5-7-10----*| 
|---0--5-8--7-0-3--0-0--0-3-5-8------| 
|---0---------0----0----0------------| 

|-------------------------| 
|-------------------------| 
|*-----------------------*| 
|*------------3p0-----3^-*| 
|--------3p0----------3^--| 
|---3p0---------------3^--| 

Bridge to Outro-9:29
|--------------------------|
|--------------------------|
|*------------------------*|
|*------------15p12-------*|
|--------15p12-------------|
|---15p12------------------|

Outro-9:40
|-----------------| 
|-----------------| 
|*---------------*| 
|*----------3p0--*| 
|-------3p0-------| 
|---3p0-----------| 





9:49
|--------------------------|
|--------------------------|
|*------------------------*|
|*------------10p7--------*|
|--------10p7--------------|
|---10p7-------------------|

9:54
|--------------------------|
|--------------------------|
|*--------------13p11-----*|
|*--------13p11-----------*|
|---13p11------------------|
|--------------------------|

9:59
|-----------------| 
|-----------------| 
|*---------------*| 
|*----------3p0--*| 
|-------3p0-------| 
|---3p0-----------| 

10:09
|--------------------| 
|--------------------| 
|--------------------| 
|-----------3p0--0~~-| 
|-------3p0------0~~-| 
|---3p0----------0~~-|


Текст, аккорды и табулатура для песни "No Quarter", исполняет "Tool".
Используемые в песне аккорды можно найти в разделе Как брать аккорды. Аккорды для шестиструнной гитары. Другие песни можно найти на нашем сайте, воспользовавшись алфавитным указателем вверху страницы.


 
Ошибка в тексте? Выделите ошибку и нажмите Ctrl+Enter