Band: Tool
Song: Message To Harry Manback
Tuning: E-G-D-G-B-E

Tabbed by: Matt Millar
Email: [email protected]

  [email protected]___

  This is my first time writing a tab, so I hope it's alright. I had to drop the A sting
to a G simply so it would be easier to play. It sounds better to hold the notes played
simultaneously on the 2 G strings and this is the easiest way I could come up with to do so.

Note: Several different effects work good with this song. I like to use flange and delay.
Play around with different effects.


*****************************************************************************

  (clean with varying effects)

 E --------------------------------------------------
 B -------7--8---7--8----------8--7-----8--7---------
 G -9-----------------------5--------7---------------
 D ---9----------------9-----------------------------
 G -9-----------------------5--------7---------------
 E --------------------------------------------------
 
 E ---------------------------8-7-5------------------
 B ------7--8---7--8----------------8--7-------------
 G -9----------------------5--------7-----9--7-------
 D ---9---------------9------------------------------
 G -9----------------------5--------7----------------
 E --------------------------------------------------
  
(Repeat the above 6 times)

 E --------7-------7---10--9-------------------------
 B -----7-------7------------------------------------
 G -8------------------9-----------------------------
 D --------------------------------------------------  (x2)
 G -8------------------9-----------------------------
 E --------------------------------------------------

 E -----------------8-7-5----------------------------
 B -------------------------8--7---------------------
 G -2------------4----------7-----9--7---------9-----
 D -------------------------------------------9------
 G -2------------4----------7----------------9-------
 E --------------------------------------------------

  ____________________________________________________________________


Текст, аккорды и табулатура для песни "Message To Harry Manback", исполняет "Tool".
Используемые в песне аккорды можно найти в разделе Как брать аккорды. Аккорды для шестиструнной гитары. Другие песни можно найти на нашем сайте, воспользовавшись алфавитным указателем вверху страницы.


 
Ошибка в тексте? Выделите ошибку и нажмите Ctrl+Enter