Band : Tool
Album: Salival
Track: 9
Song : Maynard's Dick

Part : Guitar
Tuning: Standard

Tabbed: Nolan Venhola
Email : [email protected]
Visit : Tooltabs.net

Legend

nh - natural harmonic
 ph - pinch harmonic
 
pm - palm mute
 x - muted string
 
h - hammer on
 p - pull off
 
 - slide down
 // - slide up
 
b - bend
 ~~ - vibrato
 
 - natural harmonic
 x/// - pick scrape (directions same as slide)
 
tr - tremolo picking
 
 




--------------------------------------------------------------------------------


Note: Remember it's standard tuning, and the chords tabbed out
      for acoustic aren't always the full bar chords. Improvise
      a little to get the right chord feel for each phrase.

(electric)

*C5 chord*

*count in*

(electric)
e----------------------------------
b----------------------------------
g----------------------------------
d--2-2-xx-5-5-xx-/-12-12--7--75-- x2
a--2-2-xx-5-5-xx-/-12-12--7--75--
e--0-0-xx-3-3-xx-/-10-10--5--53--

(electric)
e-----------------------------------
b-----------------------------------
g-----------------------------------
d--2-2-xx-5-5-xx-/-12-12--7---75--
a--2-2-xx-5-5-xx-/-12-12--7---75--
e--0-0-xx-3-3-xx-/-10-10--5---53--
|(acoustic)                          x8
|  Emaj   Gmaj     Dmaj    Amaj
e--0-0-xx-3-3--33--2-2-22--0-0-0-3--
b--0-0-xx-0-0--00--3-3-33--2-2-2-0--
g--1-1-xx-0-0--00--2-2-22--2-2-2-0--
d--2-2-xx-0-0--00--0-0-00--2-2-2-0--
a--2-2-xx-2-2--22----------0-0-0-2--
e--0-0-xx-3-3--33----------------3--

(electric)
e--------------------------------------------------------
b--------------------------------------------------------
g--------------------------------------------------------
d--5--5-5-5--5-5-5--5-5-5--5-5-2--2-2--2-2--2--2--2-2-2--
a--5--5-5-5--5-5-5--5-5-5--5-5-2--2-2--2-2--2--2--2-2-2--
e--3--3-3-3--3-3-3--3-3-3--3-3-0--0-0--0-0--0--0--0-0-0--
|(acoustic)                                               x4
|  Gmaj                        Emaj
e--3--3-3-3--3-3-3--3-3-3--3-3-0--0-0--0-0--0--0--0-0-0--
b--0--0-0-0--0-0-0--0-0-0--0-0-0--0-0--0-0--0--0--0-0-0--
g--0--0-0-0--0-0-0--0-0-0--0-0-1--1-1--1-1--1--1--1-1-1--
d--0--0-0-0--0-0-0--0-0-0--0-0-2--2-2--2-2--2--2--2-2-2--
a--2--2-2-2--2-2-2--2-2-2--2-2-2--2-2--2-2--2--2--2-2-2--
e--3--3-3-3--3-3-3--3-3-3--3-3-0--0-0--0-0--0--0--0-0-0--

(acoustic only)
  Emaj   Gmaj     Dmaj    Amaj
e--0-0-xx-3-3--33--2-2-22--0-0-0-3--
b--0-0-xx-0-0--00--3-3-33--2-2-2-0--
g--1-1-xx-0-0--00--2-2-22--2-2-2-0--
d--2-2-xx-0-0--00--0-0-00--2-2-2-0-- x2
a--2-2-xx-2-2--22----------0-0-0-2--
e--0-0-xx-3-3--33----------------3--

*electric guitar goes distortion with feedback*

(electric)
e-----------------------------------
b-----------------------------------
g-----------------------------------
d--2-2-xx-5-5-xx-/-12-12--7---75--
a--2-2-xx-5-5-xx-/-12-12--7---75--
e--0-0-xx-3-3-xx-/-10-10--5---53--
|(acoustic)                          x2
|  Emaj   Gmaj     Dmaj    Amaj
e--0-0-xx-3-3--33--2-2-22--0-0-0-3--
b--0-0-xx-0-0--00--3-3-33--2-2-2-0--
g--1-1-xx-0-0--00--2-2-22--2-2-2-0--
d--2-2-xx-0-0--00--0-0-00--2-2-2-0--
a--2-2-xx-2-2--22----------0-0-0-2--
e--0-0-xx-3-3--33----------------3--

(electric only)

e--------------------------------------------------------
b--------------------------------------------------------
g--------------------------------------------------------
d--5--5-5-5--5-5-5--5-5-5--5-5-2--2-2--2-2--2--2--2-2-2-- x2
a--5--5-5-5--5-5-5--5-5-5--5-5-2--2-2--2-2--2--2--2-2-2--
e--3--3-3-3--3-3-3--3-3-3--3-3-0--0-0--0-0--0--0--0-0-0--

e------------------------------------------------------------------
b------------------------------------------------------------------
g------------------------------------------------------------------
d--5--5-5-5--5-5-5--5-5-5--5-5-14--14-14--14-14--14--14--14-14-14--
a--5--5-5-5--5-5-5--5-5-5--5-5-14--14-14--14-14--14--14--14-14-14--
e--3--3-3-3--3-3-3--3-3-3--3-3-12--12-12--12-12--12--12--12-12-12--

e----------------------------------------------------------------------------
b----------------------------------------------------------------------------
g----------------------------------------------------------------------------
d--17--17-17-17--17-17-17--17-17-17--17-17-14-14-14-14-14-12-14-12-14p12-----
a--17--17-17-17--17-17-17--17-17-17--17-17-------------------------------14--
e--15--15-15-15--15-15-15--15-15-15--15-15-12--------------------------------

e---------------------
b---------------------
g---------------------
d--------------------- x2
a---------------------
e--0--3/////////////--

e------------------
b------------------
g------------------
d------------------ x4
a-----------3h5-6--
e--0--0-3h5--------

solo... kinda, sorta

e-----------------------------------------------------------------------------
b-----------------------------------------------------------------------------
g-----------------------------------------------------------------------------
d--7-7-7-7-7-5-7--7-7-5-7--5h7p5-7--5h7p5(7)p5(7)p5-5-7b--5h7p5(7)p5(7)p5-h7--
a----------ph-----ph----ph-------ph-------------------ph----------------------
e-----------------------------------------------------------------------------

e-------------------------------------------------------------------
b-------------------------------------------------------------------
g-------------------------------------------------------------------
d--2--2-2-2-2-2-2--5--5-5-5-5-5-5--7--7-7-7-7-7-7--10-101010101010--
a--2--2-2-2-2-2-2--5--5-5-5-5-5-5--7--7-7-7-7-7-7--10-101010101010--
e--0--0-0-0-0-0-0--3--3-3-3-3-3-3--5--5-5-5-5-5-5--8--8-8-8-8-8-8---
      pm - - - -|     pm - - - -|     pm - - - -|     pm - |

e-------------------------------------------------------------------------------------
b-------------------------------------------------------------------------------------
g--9--9-9-9-9-9-9--11-11-11-11-11-11-11-12--12-12-12-12-12-12--14--14-14-14-14-14-14--
d-------------------------------------------------------------------------------------
a--7--7-7-7-7-7-7--9--9--9--9--9--9--9--10--10-10-10-10-10-10--12--12-12-12-12-12-12--
e-------------------------------------------------------------------------------------

e-------------------------
b-------------------------
g--16--16-16-16-16-16-16--
d------------------------- x4
a--14--14-14-14-14-14-14--
e-------------------------

                       x3
e-------------------------|--------------------------
b-------------------------|--------------------------
g--16--16-16-16-16-16-16--|--16--16-16b--(b16)-r-16--
d-------------------------|-------------------------- (x2)
a--14--14-14-14-14-14-14--|--14--14-14b--(b14)-r-14--
e-------------------------|--------------------------

e-----------------------------------------------------------------
b-----------------------------------------------------------------
g--16b-16b-16-16--16--16-16--14--14-12--14-12--14-12--14-12---9--
d-----------------------------------------------------------------
a--14b-14b-14-14--14--14-14--12-----------------------------------
e-----------------------------------------------------------------

*hold last note*

e-------------------------------------------------------------------------------
b-------------------------------11-------------11-----------11------------------
g--10----------10---10----10-------10-10-10-------10-10-10-----10-10-10-(hold)--
d-----tr~~~~--------------------------------------------------------------------
a--8-----------8----8-----8-----------------------------------------------------
e-------------------------------------------------------------------------------



Текст, аккорды и табулатура для песни "Maynards Dick", исполняет "Tool".
Используемые в песне аккорды можно найти в разделе Как брать аккорды. Аккорды для шестиструнной гитары. Другие песни можно найти на нашем сайте, воспользовавшись алфавитным указателем вверху страницы.


 
Ошибка в тексте? Выделите ошибку и нажмите Ctrl+Enter