Band-Tool  
Song-Jimmy from Aenima  
This tab was tabbed in by Nick James Hall I like getting rapped by Kittens  

Drop D  
-------------------------------------------------------------------------  
-------------------------------------------------------------------------  
-------------------------------------------------------------------------  
-------------------------------------------------------------------------  
Repeat 6 times  
-5-----------5---------5---------3------------------------------------  
-----0-0-3----0-0-5----0-0-1--------------------------------------  

-------------------------------------------------------------------------    
----------  -------------  
-------------------------------------------------------------------------    
----------  -------------  
-------------------------------------------------------------------------    
------5--  ---------7--  
-------7----------------------------------------------------------------    
---7-----  ----7--------  
--5---------------------------------------------------------------------    
----------  -------------  
--0---------------------------------------------------------------------    
----------  -------------  

-------------------------------------------------------------------------    
--------     -----------------------------------------------------  
-------------------------------------------------------------------------    
--------     -----------------------------------------------------  
-------------------------------------------------------------------------    
--------     -----------------------------------------------------  
-------------------------------------------------------------------------    
--------     ----------------------------------------------------- Repeat 8  
times  
-6--------5-----------------------------------6--------5--------------    
----3--     ------------------------------------------------------  
----3-----0--------------------------------------3-----0--------------    
-1-----     --0--10--12--0--12~~(use vibration)------  

------------------------------------------------------------------------------  

-------------------------------  
------------------------------------------------------------------------------  

-------------------------------  
------------------------------------------------------------------------------  

-------------------------------  
------------------------------------------------------------------------------  

------------------------------- Repeat 2 times  
-----------3h5------------3h5--------------3------------3h5------------3h5----  

----------------------  
-0-0--0---------0-0--0--------0-0--0--1-----0-0--0---------0-0--0---------0-0-  

-0--1--3--------  
palm mute this riff  

-------------------------------------------------                            
----------------------------------------------------------------------------  
-------------------------------------------------                            
----------------------------------------------------------------------------  
-------------------------------------------------                            
----------------------------------------------------------------------------  
-----3----------------3---------------3--------Repeat 3 times      
-----3-------------------3-------------------------------------------------  
--5----5-3-5-----5----5-3-5----5---5-3---                            
--5----5-3-5b------5-----5-3-5b--------------------------------------  
-------------------------------------------------                            
----------------------------------------------------------------------------  
palm mute this riff  

-------------------------------------------------------------------------       
                   
-------------------------------------------------------------------------       
                   
-------------------------------------------------------------------------       
                    
-------------------------------------------------------------------------Repea  

t 3 times  
-------------------------------------------3-----------------------------       
                 
12--0-0-3--12--0-0-5--12--0-0-1-------------------------------                  
      

-------------------------             
------------------------------------------------  
-------------------------             
------------------------------------------------  
-------------------------2x          
-----------------------5-----------------------  
0--10--12---0--12~           -0--10--12--0--1--5-----------------------  
0--10--12---0--12~           -0--10--12--0--1--3-----------------------  
0--10--12---0--12~           -0--10--12--0--1---------------------------  

------------------------------------------------------------------------------  

-------------------------------------          ------  
------------------------------------------------------------------------------  

-------------------------------------          ------  
------------------------------------------------------------------------------  

-------------------------------------          --5---  
------------------------------------------------------------------------------  

-------------------------------------          --5---  
-------------------5--(tremelo pick with pinch harmonics and a  
slight bend to)-         ---3--  
0---let-ring------------------------------------------------------------------  

-----------------------------------         -------  

----------------------------------------                           
---------------------------------  
----------------------------------------                           
---------------------------------  
----------------------------------------Repeat 3 times     
---------------------------------  
12-x-7-x--10--10-10--8--7--5-                          -12-x-7-x-10--10---10b-  
12-x-7-x--10--10-10--8--7--5-                          -12-x-7-x-10--10---10b-  
12-x-7-x--10--10-10--8--7--5-                          -12-x-7-x-10--10---10b-  

--------------                        ------------------             
-----------------     ------------------        --------------------            
           
--------------                        ------------------             
-----------------     ------------------        --------------------  
--------------let it ring out      ------------------8x         
-----------------8x  ------------------8x     --------------------8x  
-0-----------                        ------3-----------            
------------------     -----3-----------        --------------------  
-0-----------                        --5--3--5-3-5b           --5---5-3-5v--    
   --5-3--5-3-5b        ---5---5-3-5v----  
-0-----------                        -------------------            
-----3-----------     ------------------        -----3-------------  
                                     palm mute                                 
       palm mute  

-------------------------------------------------------------------------  
-------------------------------------------------------------------------  
-------------------------------------------------------------------------4x  
12-0-0-0-3-12-0-0-0-5-12-0-0-0-1--10----------------------  
12-0-0-0-3-12-0-0-0-5-12-0-0-0-1--10----------------------  
12-0-0-0-3-12-0-0-0-5-12-0-0-0-1--10----------------------  

------------------------------------------------------------------------------  

----------  
------------------------------------------------------------------------------  

----------  
2--8--5---5--7---2--8--5--5----------2--8--5-------------2--8---5b----------  
0--8--5---5--5---0--8--5--5-----8---0--8--5-------------0--8---5b----------  
0--6--3---3--5---0--6--3--3----------0--6--3--3--5--3--0--6--3b-----------  
0--6--3---3--5---0--6--3--3--8------0--6--3--3--5--3--0--6--3b-----------  

------------------------------         ----------------------------  
------------------------------         -----------------------------  
2--2-2--5--53--3--------3x     -----------------------------  
0--0-0--3--31--1--------        ---0--6-3--8---------------  
0--0-0--3--31--1--------        ---0--6-3--8---------------  
0--0-0--3--31--1--------        ---0--6-3--8-------10b---  

----------------------------------------------------            
--------------------------------------------------------------------  
----------------------------------------------------            
--------------------------------------------------------------------  
----------------------------------------------------3x         
--------------------------------------------------------------------  
12-0-0-0-3-12-0-0-0-5-12-0-0-0-1--10-            
12-0-0-0-3-12-0-0-0-5-12--0-0-0-1~~~~~------------  
12-0-0-0-3-12-0-0-0-5-12-0-0-0-1--10-            
12-0-0-0-3-12-0-0-0-5-12--0-0-0-1~~~~~------------  
12-0-0-0-3-12-0-0-0-5-12-0-0-0-1--10-            
12-0-0-0-3-12-0-0-0-5-12--0-0-0-1~~~~~------------  


I'm a cool guy and this tab is right if your a cool guy.  It's not wrong I  
don't think, it's the whole song because cool people know the song all the  
way through.  If there are any problems, E-mail this guy([email protected]).    
Ask for Nicholas James Hall.  


Текст, аккорды и табулатура для песни "Jimmy", исполняет "Tool".
Используемые в песне аккорды можно найти в разделе Как брать аккорды. Аккорды для шестиструнной гитары. Другие песни можно найти на нашем сайте, воспользовавшись алфавитным указателем вверху страницы.


Слушать онлайн Spanish Guitar (Dj Tools)


Jim NastikSpanish Guitar (Dj Tools) на Яндекс.Музыке


 
Ошибка в тексте? Выделите ошибку и нажмите Ctrl+Enter