#----------------------------------PLEASE NOTE---------------------------------#
#This file is the author's own work and represents their interpretation of the #
#song. You may only use this file for private study, scholarship, or research. #
#------------------------------------------------------------------------------##
From: Jason Diamond 

intolerance by tool from the album undertow

transcribed by jason diamond 


dropped d tuning

e|--------------------------------------------
B|--------------------------------------------
G|--------------------------------------------
D|-------------------------------------------- x 4
A|---0--3--5--6-5-3-5-0--/10--3--5--6-5-3-5---
D|---0--3--5--6-5-3-5-0--/10--3--5--6-5-3-5---

e|-------------------------------------
B|-------------------------------------
G|-------------------------------------
D|------------------------------------- x 2
A|---------------------------------3---
D|---0--3--0--3--0-1--0--3--0--1-1-----

e|------------------------------------
B|------------------------------------
G|------------------------------------
D|------------------------------------ x 2
A|---5-----5--6--5-3--5-----5--6--3---
D|------3----------------3------------

e|-------------------------------------
B|-------------------------------------
G|-------------------------------------
D|------------------------------------- x 2
A|---------------------------------3---
D|---0--3--0--3--0-1--0--3--0--3-0-----

     pm - - - - - - - - - - - - - -

e|----------------------
B|----------------------
G|----------------------
D|---------------------- x 3
A|---------------xxxx---
D|---0-----0-----xxxx---

     pm - - - - - - -

e|----------------------------------------
B|----------------------------------------
G|----------------------------------------
D|---------------------------------------- x 2
A|---10--0--0--0--0-0--10--0--0--0--0-3---
D|---10--0--0--0--0-0--10--0--0--0--0-3---

e|----------------------------------------
B|----------------------------------------
G|----------------------------------------
D|----------7--7--7-7---------7--7-------- x 2
A|---10--0--5--5--5-5--10--0--5--5--0-3---
D|---10--0--0--0--0-0--10--0--0--0--0-3---

e|-------------------------------------
B|-------------------------------------
G|-------------------------------------
D|------------------------------------- x 2
A|---0--3--0--3--0-1--0--3--0--1-1-3---
D|---0--3--0--3--0-1--0--3--0--1-1-----

e|-------
B|---3---
G|-------
D|-------
A|-------
D|-------

     hold this note and let feed back

e|---------------------------------------------
B|---------------------------------------------
G|---------------------------------------------
D|--------------------------------------------- x 2
A|-----------------------------------3h5-5-5---
D|---0-xxxx-0-xxxxxxxx-0-xxxx-0-xxxx-----------

     second time hold last note and let feed back while vibrating

e|----------------------------------------
B|----------------------------------------
G|----------------------------------------
D|---------------------------------------- x 2
A|---10--0--0--0--0-0--10--0--0--0--0-3---
D|---10--0--0--0--0-0--10--0--0--0--0-3---

e|----------------------------------------
B|----------------------------------------
G|----------------------------------------
D|----------7--7--7-7---------7--7-------- x 2
A|---10--0--5--5--5-5--10--0--5--5--0-3---
D|---10--0--0--0--0-0--10--0--0--0--0-3---

e|--------------------------
B|--------------------------
G|--------------------------
D|-------------------------- x 4
A|---3---3---3---3---0--0---
D|-----5---5---5---0-0--0---

e|--------------------------------------------
B|--------------------------------------------
G|--------------------------------------------
D|-------------------------------------------- x 2
A|---0--3--5--6-5-3-5-0--/10--3--5--6-5-3-5---
D|---0--3--5--6-5-3-5-0--/10--3--5--6-5-3-5---

e|------------------------------------------
B|------------------------------------------
G|------------------------------------------
D|------------------------------------------ x 2
A|-----------------------3------------------
D|---0--3--5--6-5-3-5-0-----3--5--6-5-3-5---

     ah - - - - - - - - - - - - - - - - -

insert various guitar noises here

e|----------------------------------------
B|----------------------------------------
G|----------------------------------------
D|---------------------------------------- x 2
A|---10--0--0--0--0-0--10--0--0--0--0-3---
D|---10--0--0--0--0-0--10--0--0--0--0-3---

e|----------------------------------------
B|----------------------------------------
G|----------------------------------------
D|----------7--7--7-7---------7--7-------- x 2
A|---10--0--5--5--5-5--10--0--5--5--0-3---
D|---10--0--0--0--0-0--10--0--0--0--0-3---

e|--------------------------
B|--------------------------
G|--------------------------
D|-------------------------- x 8
A|---3---3---3---3---0--0---
D|-----5---5---5---0-0--0---

e|--------------------------
B|--------------------------
G|---5---5---5---5----------
D|-----5---5---5---0----7--- x 4
A|-------------------0--5---
D|-------------------0--0---

e|--------------------------------------
B|--------------------------------------
G|-----5----------------7---------------
D|-------------------------------------- x 2
A|---3---5-6-7p6-6p5--3---5-6-7p6-6p5---
D|--------------------------------------

     ah - - - - - - - - - - - - - - -

     this doesn't sound exactly right but it'll do

e|---------------------------------
B|---------------------------------
G|---------------------------------
D|--------------------------------- x 4
A|---0--10-------------------------
D|---0--10--10--12--13p12--10-10---

e|-------
B|-------
G|-------
D|-------
A|---0---
D|---0---


please send any corrections/comments to [email protected]




Текст, аккорды и табулатура для песни "Intolerance", исполняет "Tool".
Используемые в песне аккорды можно найти в разделе Как брать аккорды. Аккорды для шестиструнной гитары. Другие песни можно найти на нашем сайте, воспользовавшись алфавитным указателем вверху страницы.


Слушать онлайн Intolerance [in the Style of Tool]


The Karaoke UniverseIntolerance [in the Style of Tool] на Яндекс.Музыке


 
Ошибка в тексте? Выделите ошибку и нажмите Ctrl+Enter