Tabbed by: Mike Schomisch
Email: [email protected]

Tuning: Dropped-D Tuning

This took me awhile to tab out and im tired and taking a nap now.
Im pretty sure it is all correct just email me with comments or
corrections. have fun with it.

(use the clean channel and light flanger)

e---------------------------------------------|
b--3----------------3--------------2-----15---|
g--2----------------2--------------3-----14---|
d--0----------------0-----------xx-0-----0----|
a--0----------------0-----------xx-0-----0----|
d--0----------------0-----------xx-0-----0----|

*lightly palm mute the A and D strings

e-----------------------------------------------|
b-----------------------------------------------|
g-----------5----5h7p5--------------5----5p4----|
d------7------77-------7-------7------77-----5--| x2
a--5-5---88----------------5-5---88-------------|
d-----------------------------------------------|

e---------------------------------------------|
b---------------------------------------------|
g---------------------------------------------|
d--7----5---7h8-7---7--5----------------5-----|
a-------------------------7--5----3h5-x----5--|
d---------------------------------------------|

e-----------------------------------------------|
b-----------------------------------------------|
g-----------5----5h7p5--------------5----5p4----|
d------7------77-------7-------7------77-----5--|
a--5-5---88----------------5-5---88-------------|
d-----------------------------------------------|

e--------------------------------------------------------------------------|
b--------------------------------------------------------------------------|
g--------------------------------------------------------------------------|
d------7---5-------------7---5-------------7---5-------------7-----5-------|
a--5-5---8---7-0-5---5-5---8---7-5-0---5-5---8---7-0-5---5-5---8---5--5-0--|
d------------------------------------------------------------------5--5-0--|

e----------------------------------------|
b----------------------------------------|
g----------------------------------------|
d------7---5---------------7-----5-------| x2
a--5-5---8---7-0-5-----5-5---8---5--5-0--|
d--------------------------------5--5-0--|

e--------------------|
b--------------------|
g--------------------|
d------7-----5-------| x4
a--5-5---8---5--5-0--|
d------------5--5-0--|

(Flip on the distortion and turn the flanger off)

e--------------------------------|
b--------------------------------|
g--------------------------------|
d--0--------------0--------------|
a--0---x----0---x///////---|
d--0--------------0--------------|

(clean)

e-----------------------------------------------------------------------|
b-----------------------------------------------------------------------|
g-----------------------------------------------------------------------|
d-----------------------------------------------------------------------|
a-----0---------------0----------------0---------------0---------3p2----|
d--0----3---3-0----0----3--5-x-5----0----3---3-0----0----3---3h5-----5--|
  pm - - - - - - - - - - - - - - - - - - - - - - - - - - - - - - - - -|

e------------------------------------------------------------------------|
b------------------------------------------------------------------------|
g------------------------------------------------------------------------|
d---------------------------------------5p0------------------------------|
a-----0---------3-------------0-----3h5-----3h5-------0---------3--------|
d--0----3---3h5---5-3p0----0----3------------------0----3---3h5---5-3p0--|
  pm - - - - - - - - - - - - - - - - - - - - - - - - - - - - - - - - - |

e------------------------|
b------------------------|
g------------------------|
d---------------5p0------|
a-----0-----3h5-----3p0--|
d--0----3----------------|
  pm - - - - - - - - - |

e--------------------------------------------------------------------------|
b--------------------------------------------------------------------------|
g--------------------------------------------------------------------------|
d------7---5-------------7---5-------------7---5-------------7-----5-------|
a--5-5---8---7-0-5---5-5---8---7-5-0---5-5---8---7-0-5---5-5---8---5--5-0--|
d------------------------------------------------------------------5--5-0--|

e----------------------------------------|
b----------------------------------------|
g----------------------------------------|
d------7---5---------------7-----5-------| x2
a--5-5---8---7-0-5-----5-5---8---5--5-0--|
d--------------------------------5--5-0--|

e--------------------|
b--------------------|
g--------------------|
d------7-----5-------| x7
a--5-5---8---5--5-0--|
d------------5--5-0--|

e----------------|
b----------------|
g----------------|
d------7---------|
a--5-5---8b------|
d----------------|

(distortion)

e-----------------------------------------------------------------------|
b-----------------------------------------------------------------------|
g-----------------------------------------------------------------------|
d--0--7--3--5-------0--7--3--5-------0--7--3--5-------0--7--3--5-/-10---|
a--0--7--3--5--5p0--0--7--3--5--5p0--0--7--3--5--5p0--0--7--3--5-/-10---|
d--0--7--3--5--5p0--0--7--3--5--5p0--0--7--3--5--5p0--0--7--3--5-/-10---|

e-----------------------------------------------------------------------|
b-----------------------------------------------------------------------|(end with flanger)
g-----------------------------------------------------------------------|
d--0--7--3--5-------0--7--3--5---10----0--7--3--5-------0--7--3--5---0--|
a--0--7--3--5--5p0--0--7--3--5---10----0--7--3--5--5p0--0--7--3--5---0--|
d--0--7--3--5--5p0--0--7--3--5---10----0--7--3--5--5p0--0--7--3--5---0--|

rest for awhile


e----------------|
b----------------|
g----------------|
d---------10h12--| x43
a--10h12---------|
d----------------|

e--------------------------------|
b--------------------------------|
g--------------------------------|
d---------10h12------------------| x15
a--10h12--------10h12------------|
d---------------------10h12------|

e-----------------------------|
b-----------------------------|
g-----------------------------|
d---------10h12---------------|
a--10h12--------10h12-10h12---|
d-----------------------------|

e-----------------------------------------------------------------------------------|
b-----------------------------------------------------------------------------------|
g-----------------------------------------------------------------------------------|
d-----------------------------------------------------------------------------------|
a--12--12--12--12-12-1210-10-10--10-10-10-10/12-12-12-12-12-12-12/13-13-1313-13-13-|
d-----------------------------------------------------------------------------------|

e------------------------------------------------------------------------|
b------------------------------------------------------------------------|
g------------------------------------------------------------------------|
d------14----12~-------14----12~-------15----12~--12-12-12/13-13-13-13b--|
a--12-----15-------12-----15-------12-----14-----------------------------|
d------------------------------------------------------------------------|

(turn flanger off)

e-----------------------------------------------------------------------------|
b-----------------------------------------------------------------------------|
g-----------------------------------------------------------------------------|
d--8-8-8-8-8-8-8-xx-5-5-5-5-5-5-5-xx-10-10-10-10-10-10-10-xx-xx-8-8-8-8-8-8-8-|
a--8-8-8-8-8-8-8-xx-5-5-5-5-5-5-5-xx-10-10-10-10-10-10-10-xx-xx-8-8-8-8-8-8-8-|
d--8-8-8-8-8-8-8-xx-5-5-5-5-5-5-5-xx-10-10-10-10-10-10-10-xx-xx-8-8-8-8-8-8-8-|
   pm - - - - - - - - - - - - - - - - - - - - - - - - - - - - - - - - - -|

e-----------------------------------------------------------------------------|
b-----------------------------------------------------------------------------|
g-----------------------------------------------------------------------------|
d--8-------8-8-8-8----5-5-5-5-5-5-5--/-10----------------10---0---------------|
a--8-------8-8-8-8----5-5-5-5-5-5-5--/-10----------------10---0---------------|
d--8-------8-8-8-8----5-5-5-5-5-5-5--/-10-10-10-10-10-10-10---0---------------|

(kick in with the distortion)

e-----------------------------------|
b-----------------------------------|
g-----------------------------------|
d--3p0-0-1p0-0-3p0-0-0-3p0-1p0-3-4--| x4
a--3p0-0-1p0-0-3p0-0-0-3p0-1p0-3-4--|
d--3p0-0-1p0-0-3p0-0-0-3p0-1p0-3-4--|

solo

(use the wah pedal for this)

e------------------------------------------------------------------------|
b------------------------------------------------------------------------|
g------------------------------------------------------------------------|
d--/14-[tremolo picking]--14/12-12-10/12-[tremolo picking]---------------|
a------------------------------------------------------------------------|
d------------------------------------------------------------------------|

e----------------------------------------------------------------------------|
b----------------------------------------------------------------------------|
g----------------------------------------------------------------------------|
d--7--[tremolo picking--75-5-3/5--5--0--0-[tremolo picking]----------------|
a----------------------------------------------------------------------------|
d----------------------------------------------------------------------------|

e-------------------|
b--3-------3--------|
g--5br-----5br------|
d-------------------|
a-------------------|
d-------------------|

(turn wah off)

e--------------------------------|
b--------------------------------|
g--------------------------------|
d--0--0-1--0-3--0-5--0-/-10-12---| x2
a--0--0-1--0-3--0-5--0-/-10-12---|
d--0--0-1--0-3--0-5--0-/-10-12---|

e----------------------------------|
b----------------------------------|
g----------------------------------|
d-xx-xx-0-1--0-3--0-5--0-/-10-12---| x2
a-xx-xx-0-1--0-3--0-5--0-/-10-12---|
d-xx-xx-0-1--0-3--0-5--0-/-10-12---|

e---------------------------------|
b---------------------------------|(end chord with flanger)
g---------------------------------|
d--0--0-1--0-3--0-5--0------------|
a--0--0-1--0-3--0-5--0------------|
d--0--0-1--0-3--0-5--0------------|

rest for a bit

(clean)

use a little vibrato in there for an added effect to the ending

e------------------------------|
b------------------------------|
g------------------------------|
d---7----7--5-----7--5----3----|
a------------------------------|
d------------------------------|

THE END


Текст, аккорды и табулатура для песни "H", исполняет "Tool".
Используемые в песне аккорды можно найти в разделе Как брать аккорды. Аккорды для шестиструнной гитары. Другие песни можно найти на нашем сайте, воспользовавшись алфавитным указателем вверху страницы.


Слушать онлайн CWR Beat Tool H


Cwr studiosCWR Beat Tool H на Яндекс.Музыке


 
Ошибка в тексте? Выделите ошибку и нажмите Ctrl+Enter