-------------------------------------------------------------------------------
			     DISPOSITION - Tool
-------------------------------------------------------------------------------
Tabbed by: Dionysus
Email: [email protected]

Guitar 1, delay with a little distortion
Guitar 2, delay with a little distortion
Guitar 3 (Acoustic)
Bass

Tuning: D A D G B E

Guitar 1
0:00
|---------------------------------------------------------------------------|
|---------------------------------------------------------------------------|
|---------------------------------------------------------------------------|
|---------------------------------------------------------------------------|
|-------+7----------------------------------+7------------------------------|
|---------------------------------------------------------------------------|
|                                                       this is all played twice
|bass          
|-------------------------+5----------------------------+5-------11--11-----|
|-------+9------+5--------------0-----------+9-----+5-------2/9---------9---|
|--7---------7-------7-------7----------7-------7------7--------------------|
|----------------------------------0----------------------------------------|

 Fig. 1
Guitar 1:             (Begins at 0:22)
|---------------------------------------------------------------------------|
|-------+7-------------------------------+7---------------------------------|
|--------------------------------------------+7-----------------------------|
|---------------------------------------------------------------------------|
|--+7--------------------------------+7-------------------------------------|
|---------------------------------------------------------------------------|
bass continues under this^.

Guitar 1                                                          End Fig. 1
|---------------------------------------------------------------------------|
|------+7---------------------------------+7------------+7------------------|
|----------+7---------------------------------+7----------------------------|
|--------------+7---------------------------------+7------------------------|
|--+7---------------------------------+7------------------------------------|
|---------------------------------------------------------------------------|

Fig. 2                               _______________________________________
Guitar 1                             |1.                          
|------------------------------------|--------------------------------------|
|------+7-----------10--7--7---------|-----+7-------------------------------|
|.---------+7------------------------|---------+7-----------10---10---------|
|.-------------+7--------------------|-------------+7----9------------------|
|--+7--------------------------------|-+7-----------------------------------|
|------------------------------------|--------------------------------------|
|(0:44)                               ______________________________________
|Guitar 3                             |1.
|------------------------------------|--------------------------------------|
|------------------------------------|--------------------------------------|
|.-----------------------------------|--------------------------------------|
|.-2------4--------4h5---4-----------|-2-------4---------4h5---4------------|
|------------------------------------|--------------------------------------|
|------------------------------------|--------------------------------------|
_____________________________________
|2.                                    End figure two. 
|------------------------------------|
|------------------------------------|
|---7--9--------------11--11--------.|
|-----------9------/9---------------.|
|------------------------------------|
|------------------------------------|
|_____________________________________
|2.
|------------------------------------|
|------------------------------------|
|-----------------------------------.|
|--2----4----4h5--4-----------------.|
|------------------------------------|
|------------------------------------|


repeat fig. 2 while bass plays this.

Fig 3. (Figure 2, both guitars with bass) 
bass  (1:05)
|--0---2--2--------------------------|--0---2--2----------------------------|
|--------------2----2---2------------|--------------2----2---2--------------|
|------------------------------------|--------------------------------------|
|------------------------------------|--------------------------------------|

bass
|--0---2--2--------------------------|--0---2--2----------------------------|
|--------------2----2---2------------|--------------2----2---2--------------|
|------------------------------------|--------------------------------------|
|------------------------------------|--------------------------------------|
|
|Guitar 3
|------------------------------------|--------------------------------------|
|------------------------------------|--------------------------------------|
|.-------------------------4--5--4---|--------------------------------------|
|.-2------4--------4h5---4-----------|-2-------4----------4h5-----4---------|
|------------------------------------|--------------------------------------|
|------------------------------------|--------------------------------------|






I dont' remember what the bass is doing here. 
Guitar 1  (1:24)
|------------------------------------|--------------------------------------|
|------------------------------------|--------------------------------------|
|--9---------------------------------|--9-----------------------------------|
|------9-----------------------------|-----9--------------------------------|
|------------------------------------|--------------------------------------|
|------------------------------------|--------------------------------------|
|(Guitar 3 continues it's part in Fig. 2 than begins to play sonething I don't |know)
|Guitar 2
|------------------------------------|--------------------------------------|
|-/5---7----10--/5---7----10-------|-/5---7----10--/5---7----10---------|
|------------------------------------|--------------------------------------|
|------------------------------------|--------------------------------------|
|------------------------------------|--------------------------------------|
|------------------------------------|--------------------------------------|

Guitar 1 
|------------------------------------|--------------------------------------|
|------------------------------------|--------------------------------------|
|--9---------------------------------|--9-----------------------------------|
|------9-----------------------------|-----9--------------------------------|
|------------------------------------|--------------------------------------|
|------------------------------------|--------------------------------------|
|
|Guitar 2
|------------------------------------|--------------------------------------|
|-/5---7----10--/5---7----10------|----------------------------10------|
|------------------------------------|---/10----/10---(/10)---------------|
|------------------------------------|--------------------------------------|
|------------------------------------|--------------------------------------|
|------------------------------------|--------------------------------------|
                                        ^ verry fast
Guitar 1
|------------------------------------|--------------------------------------|
|------------------------------------|--------------------------------------|
|--9---------------------------------|--9-----------------------------------|
|------9-----------------------------|-----9--------------------------------|
|------------------------------------|--------------------------------------|
|------------------------------------|--------------------------------------|
|
|Guitar 2
|------------------------------------|--------------------------------------|
|-/5---7----10--/5---7----10-------|-/5---7----7---/5---7----10---------|
|------------------------------------|--------------------------------------|
|------------------------------------|--------------------------------------|
|------------------------------------|--------------------------------------|
|------------------------------------|--------------------------------------|

Guitar 1
|------------------------------------|--------------------------------------|
|------------------------------------|--------------------------------------|
|--9---------------------------------|--9------------------------------b7---|
|------9-----------------------------|-----9--------------------------------|
|------------------------------------|--------------------------------------|
|------------------------------------|--------------------------------------|
|
|Guitar 2
|------------------------------------|--------------------------------------|
|-/5---7----10--/5---7----7--------|-/5---7---10---/5---7----------------|
|------------------------------------|--------------------------------------|
|------------------------------------|--------------------------------------|
|------------------------------------|--------------------------------------|
|------------------------------------|--------------------------------------|

repeat fig. 3 (at 2:08)

Guitar 2  plays this whole thing twice 
|------------------------------------|--------------------------------------|
|------7--7---7h8p7-7---7h10---------|------7---7--7h8p7-7---7h10-----------|
|----------------------------7h9p7---|------------------------------7h9p7---|
|--9---------------------------------|--h9----------------------------------|
|------------------------------------|--------------------------------------|
|------------------------------------|--------------------------------------|

Guitar 1
|------------------------------------|--------------------------------------|
|------------------------------------|--------------------------------------|
|-/9-------11-----11h12-11-----------|-/9-------11-----11h12-11-------------|
|------------------------------------|--------------------------------------|
|------------------------------------|--------------------------------------|
|------------------------------------|--------------------------------------|
|
|Guitar 3
|------------------------------------|--------------------------------------|
|------+7----------------------------|------+7------------------------------|
|----------+7------------------------|----------+7--------------------------|
|--------------+7--------------------|--------------+7----------------------|
|--+7--------------------------------|--+7----------------------------------|
|------------------------------------|--------------------------------------|
|
|guitar 2
|------------------------------------|--------------------------------------|
|-/5---7----10--/5---7----10------|----------------------------10------|
|------------------------------------|---/10----/10---(/10)---------------|
|------------------------------------|--------------------------------------|
|------------------------------------|--------------------------------------|
|------------------------------------|--------------------------------------|
                                        ^ verry fast

Guitar 1
|------------------------------------|--------------------------------------|
|------------------------------------|--------------------------------------|
|-/9-------11-----11h12-11-----------|-/9-------11-----11h12-11-------------|
|------------------------------------|--------------------------------------|
|------------------------------------|--------------------------------------|
|------------------------------------|--------------------------------------|
|
|Guitar 3
|------------------------------------|--------------------------------------|
|------+7----------------------------|------+7------------------------------|
|----------+7------------------------|----------+7--------------------------|
|--------------+7--------------------|--------------+7----------------------|
|--+7--------------------------------|--+7----------------------------------|
|------------------------------------|--------------------------------------|
|
|Guitar 2
|------------------------------------|--------------------------------------|
|-/5---7----10--/5---7----10-------|-/5---7----7---/5---7----10---------|
|------------------------------------|--------------------------------------|
|------------------------------------|--------------------------------------|
|------------------------------------|--------------------------------------|
|------------------------------------|--------------------------------------|


Guitar 1
|------------------------------------|--------------------------------------|
|------------------------------------|--------------------------------------|
|-/9-------11-----11h12-11-----------|-/9-------11-----11h12-11----h11h12p11|
|------------------------------------|--------------------------------------|
|------------------------------------|--------------------------------------|
|------------------------------------|--------------------------------------|
|
|Guitar 3
|------------------------------------|--------------------------------------|
|------+7----------------------------|------+7------------------------------|
|----------+7------------------------|----------+7--------------------------|
|--------------+7--------------------|--------------+7----------------------|
|--+7--------------------------------|--+7----------------------------------|
|------------------------------------|--------------------------------------|
|
|Guitar 2
|------------------------------------|--------------------------------------|
|------------10---------------------|--------------------------------------|
|-------------------------9----------|-----------------b7------9------------|
|-----------------------------9------|-------------------------------9------|
|------------------------------------|--------------------------------------|
|------------------------------------|--------------------------------------|

Guitar 1 this little trill. part can be played with a 12 on the b string
instead of the 16 on the g.
|-------------------------|
|-------------------------|
|-12-11h12h16p12p11h12----|
|-------------------------|
|-------------------------|
|-------------------------|

Guitar 1 (3:21) play twice            second time play this note sticatto.
|------------------------------------|--------------------------------------|
|------------------------------------|--------------------------------------|
|-/9-------11-----11h12-11-----------|-/9-------11-----11h12-11-------------|
|------------------------------------|--------------------------------------|
|------------------------------------|--------------------------------------|
|------------------------------------|--------------------------------------|
|                        second time play this note sticatto.^
|Guitar 3
|------------------------------------|--------------------------------------|
|------+7----------------------------|------+7------------------------------|
|----------+7------------------------|----------+7--------------------------|
|--------------+7--------------------|--------------+7----------------------|
|--+7--------------------------------|--+7----------------------------------|
|------------------------------------|--------------------------------------|
|
|Guitar 2
|------------------------------------|--------------------------------------|
|------------10---------------------|--------------------------------------|
|-------------------------9----------|-----------------b7------9------------|
|-----------------------------9------|-------------------------------9------|
|------------------------------------|--------------------------------------|
|------------------------------------|--------------------------------------|

Guitar 1
|------------------------------------|--------------------------------------|
|------------------------------------|--------------------------------------|
|-/9-------11-----11h12-11-----------|-9~~~-------------9~~~----------------|
|------------------------------------|--------------------------------------|
|------------------------------------|--------------------------------------|
|------------------------------------|--------------------------------------|
|
|Guitar 3
|------------------------------------|--------------------------------------|
|------+7----------------------------|------+7------------------------------|
|----------+7------------------------|----------+7--------------------------|
|--------------+7--------------------|--------------+7----------------------|
|--+7--------------------------------|--+7----------------------------------|
|------------------------------------|--------------------------------------|
|
|Guitar 2
|------------------------------------|--------------------------------------|
|------------------------------------|--------------------------------------|
|----------------b7-------9----------|-----------------b7------9------------|
|-----------------------------9------|-------------------------------9------|
|------------------------------------|--------------------------------------|
|------------------------------------|--------------------------------------|



Guitar 1
|------------------------------------|--------------------------------------|
|------------------------------------|--------------------------------------|
|-9~~~------------------9~~~---------|-9~~~-------------9~~~----------------|
|------------------------------------|--------------------------------------|
|------------------------------------|--------------------------------------|
|------------------------------------|--------------------------------------|
|
|Guitar 3
|------------------------------------|--------------------------------------|
|------+7----------------------------|------+7------------------------------|
|----------+7------------------------|----------+7--------------------------|
|--------------+7--------------------|--------------+7----------------------|
|--+7--------------------------------|--+7----------------------------------|
|------------------------------------|--------------------------------------|
|
|Guitar 2
|------------------------------------|--------------------------------------|
|------------------------------------|--------------------------------------|
|----------------b7-------9----------|-----------------b7------9------------|
|-----------------------------9------|-------------------------------9------|
|------------------------------------|--------------------------------------|
|------------------------------------|--------------------------------------|

Guitar 1
|------------------------------------|--------------------------------------|
|------------------------------------|--------------------------------------|
|-9/12--11--------9/12--11-----------|-9/12--11---------9/12---11-----------|
|------------------------------------|--------------------------------------|
|------------------------------------|--------------------------------------|
|------------------------------------|--------------------------------------|
|
|Guitar 3
|------------------------------------|--------------------------------------|
|------+7----------------------------|------+7------------------------------|
|----------+7------------------------|----------+7--------------------------|
|--------------+7--------------------|--------------+7----------------------|
|--+7--------------------------------|--+7----------------------------------|
|------------------------------------|--------------------------------------|
|
|Guitar 2
|------------------------------------|--------------------------------------|
|------------------------------------|--------------------------------------|
|----------------b7-------9----------|-----------------b7------9------------|
|-----------------------------9------|-------------------------------9------|
|------------------------------------|--------------------------------------|
|------------------------------------|--------------------------------------|


Guitar 3
|------------------------------------|--------------------------------------|
|------+7----------------------------|------+7------------------------------|
|----------+7------------------------|----------+7--------------------------|
|--------------+7--------------------|--------------+7----------------------|
|--+7--------------------------------|--+7----------------------------------|
|------------------------------------|--------------------------------------|
|
|Guitar 2
|------------------------------------|--------------------------------------|
|------------------------------------|--------------------------------------|
|----------------b7-------9----------|-----------------b7------9------------|
|-----------------------------9------|-------------------------------9------|
|------------------------------------|--------------------------------------|
|------------------------------------|--------------------------------------|

| /  slide up   
|   slide down
| h  hammer-on
| p  pull-off
| ~  vibrato
| +  harmonic
| x  Mute note
| b  Bend
=============================================================================


Текст, аккорды и табулатура для песни "Disposition", исполняет "Tool".
Используемые в песне аккорды можно найти в разделе Как брать аккорды. Аккорды для шестиструнной гитары. Другие песни можно найти на нашем сайте, воспользовавшись алфавитным указателем вверху страницы.


Слушать онлайн Disposition


Vitamin String QuartetDisposition на Яндекс.Музыке


 
Ошибка в тексте? Выделите ошибку и нажмите Ctrl+Enter