----------------------------------------------------------------------
			     46 & 2 - Tool
----------------------------------------------------------------------

      h - hammer on 
      p - pull off 
      b - bend string
      / - slide up
       - slide down
      x - muted, struck string
      p.m. - palm mute
      p.h. - pinch harmonic

  Intro: Bass arranged for guitar: (use chorus or flanger)
G|--------------------------------------------------------------------
D|-----------------------------(3X)-------------------5p4-------------
A|---5---3h5---6p5---3h5---1h3--------5---3h5---6p5---------6p5-------
D|-0---0-----0-----0-----0----------0---0-----0-----0-----0-----------

e|--------------------------------------------------------------------
B|--------------------------------------------------------------------
G|--------------------------------------------------------------------
D|--------------------------------------------------------------------
A|-5--3--6-----5--3--6---1--------------------------------------------
D|--------------------------------------------------------------------
  p.m.----------------------|

e|--------------------------------------------------------------------
B|--------------------------------------------------------------------
G|--------------------------------------------------------------------
D|--------------------------------------------------------------------
A|-5--3--6p5---5--3--6p5---5--3--6p5---5--3--6p5---1h3----------------
D|-----------------------------------------------0--------------------

e|--------------------------------------------------------------------
B|--------------------------------------------------------------------
G|--------------------------------------------------------------------
D|-0-----------h3---p0----------12-------10------10-0--5p4------------
A|-0-let ring--h3---p0----10-12----10-12----8-10----0------3h5--------
D|-0-----------h3---p0------------------------------0-----------------

e|------------------|-------------------------------------------------
B|------------------|-------------------------------------------------
G|-7--------------7-|-----7-------5-------5-------7-------------------
D|-7------0---------|-5-7-----5-7-----3-5-----5-7---------------------
A|-5------0---------|-------------------------------------------------
D|--------0---------|-------------------------------------------------
  let ring---------|  p.m.    p.m.    p.m.    p.m.

e|--------------------------------------------------------------------
B|--------------------------------------------------------------------
G|--------------------------------------------------------------------
D|--------------------------------------------------------------------
A|--------------------------------------(4X)--------------------------
D|-0-12-0-10h12-0-13p12-0-10h12---8h10--------------------------------
  there's a part before this that's hard to hear, i think its played on
the B and e strings, listen carefully and see if you can get it

e|--------------------------------------------------------------------
B|--------------------------------------------------------------------
G|--------------------------------------------------------------------
D|-0-12-0-10h12-0-13p12-0-10h12-0-8h10------0--0-0-0------------------
A|-0-12-0-10h12-0-13p12-0-10h12-0-8h10-(3x)-0--0-0-0------------------
D|-0-12-0-10h12-0-13p12-0-10h12-0-8h10------0--0-0-0------------------

e|--------------------------------------------------------------------
B|--------------------------------------------------------------------
G|--------------------------------------------------------------------
D|--------------------------------------------------------------------
A|-------------------------------(4X)---------------------------------
D|-12-10-13p12--12-10-13p12-8h10--------------------------------------

e|--------------------------------------------------------------------
B|--------------------------------------------------------------------
G|--------------------------------------------------------------------
D|--------------------------------------------------------------------
A|-------------------------------(4X)---------------------------------
D|-12-10-13p12--12-10-13p12-8h10--------------------------------------
  p.m.--------------------------|

e|--------------------------------------------------------------------
B|--------------------------------------------------------------------
G|--------------------------------------------------------------------
D|---------------(8X)-------------------------------------------------
A|-5-3-6--5-3-6-------------------------------------------------------
D|--------------------------------------------------------------------
  p.m.---------|      near the end let up on the p.m.

e|--------------------------------------------------------------------
B|--------------------------------------------------------------------
G|--------------------------------------------------------------------
D|--------------------------------------------------------------------
A|--------------------------------------(4X)--------------------------
D|-0-12-0-10h12-0-13p12-0-10h12---8h10--------------------------------

e|--------------------------------------------------------------------
B|--------------------------------------------------------------------
G|--------------------------------------------------------------------
D|-0-12-0-10h12-0-13p12-0-10h12-0-8h10------0--0-0-0------------------
A|-0-12-0-10h12-0-13p12-0-10h12-0-8h10-(3x)-0--0-0-0------------------
D|-0-12-0-10h12-0-13p12-0-10h12-0-8h10------0--0-0-0------------------

e|--------------------------------------------------------------------
B|--------------------------------------------------------------------
G|--------------------------------------------------------------------
D|--------------------------------------------------------------------
A|----------------------------(4X)------------------------------------
D|-5h7-00-3h5-0-5h7-0-3p0-3h5-----------------------------------------
   on the fourth one adam uses slight pinch harmonics

e|-0000000000000000000000000000000000000000000000000000000------------
B|-0000000000000000000000000000000000000000000000000000000------------
G|-7************10************9************8**************------------
D|--------------------------------------------------------------------
A|--------------------------------------------------------------------
D|--------------------------------------------------------------------
   * this just means to pick that note continuously

e|--------------------------------------------------------------------
B|--------------------------------------------------------------------
G|--------------------------------------------------------------------
D|-0-00-5p3-0-3--0----------------------------------------------------
A|-0-00-5p3-0-3--0-3p0-3h5-6p5----------------------------------------
D|-0-00-5p3-0-3--0----------------------------------------------------
     pm             (i'm really just guessing on this part)

e|--------------------------------------------------------------------
B|--------------------------------------------------------------------
G|--------------------------------------------------------------------
D|--------------------------------------------------------------------
A|-------------(4X)-(rest)-(4X)-(rest)-(4X)---------------------------
D|-12-10-13p12--------------------------------------------------------

e|--------------------------------------------------------------------
B|--------------------------------------------------------------------
G|--------------------------------------------------(4X)----------(3X)
D|--------------------------------------12-10-13p12------12-10-13-----
A|---------------------------------(6X)-------------------------------
D|5*2*--12-10-13p12------------------------------------
  *natural harmonics on open D, also use a wah pedal

e|--------------------------------------------------------------------
B|--------------------------------------------------------------------
G|--------------------------------------------------------------------
D|--------------------------------------------------------------------
A|-------------(16X)--------------------------------------------------
D|-12-10-13p12--------------------------------------------------------
  p.h.--------| and continue to use wah

e|--------------------------------------------------------------------
B|-------------------------------------play this fourth time----------
G|--------------------------------(3X)--------------5-----------------
D|-12-10-13p12--12-10-13p12--8h10----12-10-13p12--3-5-0-1-------------
A|-12-10-13p12--12-10-13p12--8h10----12-10-13p12--3-3-0-1-------------
D|-12-10-13p12--12-10-13p12--8h10----12-10-13p12--3---0-1-------------

e|--------------------------------------------------------------------
B|--------------------------------------------------------------------
G|-------------------------------------(3X)---------------------------
D|-0-12-0-10h12-0-13p12-0-10h12-0-8h10--------------------------------
A|-0-12-0-10h12-0-13p12-0-10h12-0-8h10--------------------------------
D|-0-12-0-10h12-0-13p12-0-10h12-0-8h10--------------------------------

e|--------------------------------------------------------------------
B|--------------------------------------------------------------------
G|--------------------------------------------------------------------
D|-0--0-0-0-0-0--0-0-0-0-0--0-0-0-0-0--0-0-0--------------------------
A|-0--0-0-0-0-0--0-0-0-0-0--0-0-0-0-0--0-0-0--------------------------
D|-0--0-0-0-0-0--0-0-0-0-0--0-0-0-0-0--0-0-0--------------------------

it's not perfect, but its a starting point for learners, and its better than some
of those other tabs that say they're 100% correct, anyway, i hope this helps.


Текст, аккорды и табулатура для песни "46 And 2", исполняет "Tool".
Используемые в песне аккорды можно найти в разделе Как брать аккорды. Аккорды для шестиструнной гитары. Другие песни можно найти на нашем сайте, воспользовавшись алфавитным указателем вверху страницы.


Слушать онлайн 46 and 2 [in the Style of Tool]


The Karaoke Universe46 and 2 [in the Style of Tool] на Яндекс.Музыке


 
Ошибка в тексте? Выделите ошибку и нажмите Ctrl+Enter