Am
Один против армии
E
Положение не в кайф
F
Пройдемся ударными
C
Поздно на попятную
Am
Наставили галочек
E
Не послушаешь пластинку
F
Решетки из палочек
E
Не видно картинку

Пр:
   C
   До свидания командор
   E
   До свидания
   Am
   До свидания командор
   F
   До свидания

Дорогами дальними
Не в сезон одетый
Нет чтобы у телека
С милой есть конфеты
Черные косматые
Брови нахмурив
Топает шлепает
В дождь и в снежные бури

Пр.
          Am                               E
   { 4 раза }                       { 4 раза }
e|--12----------13-------         ---10---------12-------
B|-----13----------13----         ------12---------12----
G|--------14----------14- 2 раза  ---------13---------13- 2 раза
D------------         -----------------------
A------------         -----------------------
E------------         -----------------------

          F                                E
   { 4 раза }                       { 4 раза }
e|--10----------12-------        -----------------------
B|-----13----------13----        ----12--------15-------
G|--------10----------10- 2 раза -------13--------13---- 1 раз
D------------        ----------14--------14-
A------------        -----------------------
E------------        -----------------------

e------------------------------16--16-19--19-20--20-22--22-24-
B12--12-13--13-15--15-17----17--------------------------------
G|----13--13--------------------------------------------------------------
D|-14---------------------------------------------------------------------
A-------------------------------------------------------------
E-------------------------------------------------------------

Пр.


Текст, аккорды и табулатура для песни "Командор", исполняет "Tomas".
Используемые в песне аккорды можно найти в разделе Как брать аккорды. Аккорды для шестиструнной гитары. Другие песни можно найти на нашем сайте, воспользовавшись алфавитным указателем вверху страницы.


Слушать онлайн Commander Stomp


Kane ThomasCommander Stomp на Яндекс.Музыке


 
Ошибка в тексте? Выделите ошибку и нажмите Ctrl+Enter