Желательно аккорды (G,D) ставить в виде барре: 
     G(bar)              D(bar)  
e|----3------|       e|----2------|
b|----3------|       b|-----3-----|
g|------4----|       g|----2------|
d|------5----|       d|-----4-----|
a|------5----|       a|-----5-----|
e|----3------|       e|----2------|  но можно и обычные G, D.


   Hm
Солнце улыбается как и вчера 
    G(bar)              F#
В суицидных шортах гуляет мой день
    G(bar)             D(bar)
Мне тебя не жаль мне еще до фига
    F#                  Hm
У меня с утра депрессивная лень

На пороге мысли не спешат заходить
Нечего им делать в дурной голове
Завалилось время с весны на бикрень 
У меня с утра депрессивная лень

D(bar)      F#               Hm
Где мой волшебный Джин Джак
D(bar)      F#               Hm
Где мои прежние дни

Сяду закурю золотую стрелу
Улыбнется солнце опять как всегда
Мы друг другу рады оно я и тень
У меня с утра депрессивная лень

Солнце улыбается как и вчера 
В суицидных шортах гуляет мой день
Мне тебя не жаль мне еще до фига
У меня с утра депрессивная лень

Где мой волшебный Джин Джак
Где мои прежние дни
Голос безмолвствует в такт
Песниииииии
 
Соло в конце песни:
e|----12-12-12----10----8------3--|---12-12-12-----10-----8------5------|
b-----------------------------------------------|   4РАЗА
g-----------------------------------------------|


Текст, аккорды и табулатура для песни "Джин Джак", исполняет "Tomas".
Используемые в песне аккорды можно найти в разделе Как брать аккорды. Аккорды для шестиструнной гитары. Другие песни можно найти на нашем сайте, воспользовавшись алфавитным указателем вверху страницы.


 
Ошибка в тексте? Выделите ошибку и нажмите Ctrl+Enter