TOBY KEITH
                    HOTTIE
 
This is in Drop "D"

Intro Part I
e|--------------------------------------------------------|
b|--------------------------------------------------------|
g|--------------------------------------------------------|
d|-----0-------0-----5-----0-------0-----5--------------3-|
A|---0---0---0-----5-----0---0---0-----5----0-3-5-0-3-5---|
D|-0-------3-----5-----0-------3-----5--------------------|

Intro Part II
e|------------------------------------|
b|------------------------------------|
g|------------------------------------|
d|----------------------------------3-|
A|----------------------0-3-5-0-3-5---|
D|-0-0-3-7-5--0-0-3-7-5---------------|


Текст, аккорды и табулатура для песни "Hottie", исполняет "Toby Keith".
Используемые в песне аккорды можно найти в разделе Как брать аккорды. Аккорды для шестиструнной гитары. Другие песни можно найти на нашем сайте, воспользовавшись алфавитным указателем вверху страницы.


Слушать онлайн Shes a Hottie (In the Style of Toby Keith)


Ameritz - KaraokeShes a Hottie (In the Style of Toby Keith) на Яндекс.Музыке


 
Ошибка в тексте? Выделите ошибку и нажмите Ctrl+Enter