Band: Toadies
Song: Tyler
Album: Rubberneck
Tabbed By: Matt Mathis

Riff 1:
G|---------------------------------|
D|--------------94-4-4-4-4-4-5-5--|
A|--5-5-5-5-7h9--------------------|
E|---------------------------------|

Riff 2:
G|---------------------------------|
D|---------------------------------|
A|-5-5---5------------4------------|
E|-----5---5-5/7--2-2---2--2-2-3-3-|

Riff 1    8x
Riff 2    2x
Riff 1    4x
Riff 2    4x
(Pause)
Riff 1   11x
Riff 2   10x
Riff 1    2x

Simple as that and fun to play. Pretty sure I got the number of 
times each riff is played 100% right.


Текст, аккорды и табулатура для песни "Tyler", исполняет "Toadies".
Используемые в песне аккорды можно найти в разделе Как брать аккорды. Аккорды для шестиструнной гитары. Другие песни можно найти на нашем сайте, воспользовавшись алфавитным указателем вверху страницы.


Слушать онлайн Tyler


ToadiesTyler на Яндекс.Музыке


 
Ошибка в тексте? Выделите ошибку и нажмите Ctrl+Enter