Mexican Hairless Bass Tab
by Toadies
Tabbed by Evan Bender

Part A
|G|-------------------------------|
D--1---0-----------1---0--------|
A----2---00000-------2---0000012|
|E|4------------00-4--------------|

Part B

|G|--------------------------------------------|
D--------333344444444------------333344444444|
A44444444------------333344444444------------|
|E|--------------------------------------------|

Part C
|G|------------------------------------------------(--------)|
D------------3333444444442222--------333344444444(--------)|
A333344444444----------------44444444------------(33333333)|
|E|------------------------------------------------(--------)|
						   (last time only)

Part D
|G|-------------------------------|
D--1---0---1---0---1---0--------|
A----2-------2-------2---0000012|
|E|4-------4-------4--------------|


Rest for a while.
Play part A twice.
Play A22222222222222222-|.
Rest for a while.
Play part B once.
Play part C twice.
Play part A twice.
Play part D once.


Текст, аккорды и табулатура для песни "Mexican Hairless", исполняет "Toadies".
Используемые в песне аккорды можно найти в разделе Как брать аккорды. Аккорды для шестиструнной гитары. Другие песни можно найти на нашем сайте, воспользовавшись алфавитным указателем вверху страницы.


 
Ошибка в тексте? Выделите ошибку и нажмите Ctrl+Enter