Solo:
||-----------------------------------------||
||-----------------------------------------||
||------------7-5-4------------------7-5-4-||
||-7-9-10-9-7------5-7----7-9-10-9-7-------||
||-----------------------------------------||
||-----------------------------------------||

Bass:

Куплет:

E|-5555555-0000000-1111111-3333333-||

Припев:

Часть 1 (И солнце победы)

E|-5-------0-------1-------3-------||

Часть 2 (Хейль Blood & Honour)

D|-----7-------2-------3-------5---||
A|---7-------2-------3-------5-----||
E|-5-------0-------1-------3-------||

A5              E
Сверкают ботинки в сумраке ночи
F              G
Бритые головы, злоба в глазах
Враги их завидя, бегут со всей мочи
Ночные солдаты в моих городах

И солнце победы над Русью встает !
На правое дело оно нас зовет.
Кто родине предан, тот брат нам, и знай,
Что мы Blood & Honour - рядом с нами вставай !
Хейль ! Blood & Honour !
На благо народа, во имя России !
Хейль ! Blood & Honour !
Почувствуй биение бесстрашных сердец !
Хейль ! Blood & Honour !
Мы дети Перуна - арийские войны !
Хейль ! Blood & Honour !
И скоро всей мрази настанет конец !

Для личной корысти здесь нету причины
Вершиться здесь все на благо страны
Для родины есть патриоты мужчины
Ублюдки и выродки ей не нужны

Припев

Кто родину любит, тот с нами шагает
Кто родине предан, тот с нами встает
Кто верет в победу, тот страха не знает
Кто пал как герой, никогда не умрет

Припев


Текст, аккорды и табулатура для песни "Blood & Honour", исполняет "T.N.F.".
Используемые в песне аккорды можно найти в разделе Как брать аккорды. Аккорды для шестиструнной гитары. Другие песни можно найти на нашем сайте, воспользовавшись алфавитным указателем вверху страницы.


 
Ошибка в тексте? Выделите ошибку и нажмите Ctrl+Enter