------------------------------------------------------------------------------- 
                         TRUE ROMANCE - Tiger Army 
------------------------------------------------------------------------------- 

Tabbed by: Blaine Kranz([email protected]) The strums aren’t exact! 


e:I told you right from the start…verse#1------------------------ 
B:--------------------------------------galloping strum---------- 
G:--------------------------------------7-7-7-7-7-7-7------------ 
D:-9-9-9-9-9-7-7- 9- 9- 9- 9- 9---------7-7-7-7-7-7-7------------ 
A:-9-9-9-9-9-7-7-10-10-10-10-10---8x’s— 5-5-5-5-5-5-5------------ 
E:-7-7-7-7-7-7-7 7- 7- 7- 7- 7---------------------------------- 

e:I told you that my love was true…verse#2----------------------- 
B:--------------------------------------------------------------- 
G:--------------------------------------7-7-7-7-7-7-7------------ 
D:-9-9-9-9-9-7-7- 9- 9- 9- 9- 9---------7-7-7-7-7-7-7------------ 
A:-9-9-9-9-9-7-7-10-10-10-10-10---8x’s--5-5-5-5-5-5-5------------ 
E:-7-7-7-7-7-7-7--7- 7- 7- 7- 7---------------------------------- 

e:I’ll love you forever… – 9 -9-10-10- 9- 9-7-7-7-7-7-7---------- 
B:------------------------10-10-10-10-10-10-8-8-8-8-8-8---------- 
G:-------------------------9--9--9--9--9--9-7-7-7-7-7-7---------- 
D:--------------------------------------------------------------- 
A:--------------------------------------------------------------- 
E:--------------------------------------------------------------- 
G D A 
e:Davey Havok doing “Ho”s-3-3-3-3-3-3-3-3-0-0-0-0---------------- 
B:------------------------0-0-0-0-2-2-2-2-2-2-3-2---------------- 
G:----------------4-4-4-4-0-0-0-0-3-3-3-3-2-2-2-2—4x’s----------- 
D:----------------4-4-4-4-0-0-0-0-0-0-0-0-2-2-2-2---------------- 
A:----------------2-2-2-2-2-2-2-2---------0-0-0-0---------------- 
E:------------------------3-3-3-3-------------------------------- 

e:-verse#3--------------------verse#4---------------------------- 
B:--------------------------------------------------------------- 
G:-------------------7777777---------------- 7777-99-1010-------- 
D:9999977-9-9-9-9----777777799999977-9-9-9-9-7777-99-1010-------- 
A:9999977101010108x’s55555559999997710101010-5555 77- 8-8-------- 
E:7777777-7-7-7-7-----------77777777-7-7-7-7--------------------- 

e:-9-9-9-10-10- 9- 9-7-7-7-7-Until death do us part…------------- 
B:101010-10-10-10-10 8-8-8-8------------------------------------- 
G:-9-9-9--9--9- 9- 9-7-7-7-7-------------7777----9999------------ 
D:---------------------------------------77777777999999994x’s---- 
A:---------------------------------------5555777777779999-------- 
E:I’ll love you forever…-----------------5555----7777-------- 


e:outro------------I took your fucking life.--------------------- 
B:-------------------------4------------------------------------- 
G:-----------------5-5-5-5-4------------------------------------- 
D:-5-5-5-5-7-7-7-7-5-5-5-5-4------------------------------------- 
A:-5-5-5-5-7-7-7-7-3-3-3-3-2------------------------------------- 
E:-3-3-3-3-5-5-5-5----------------------------------------------- 

------------------------------------------------------------------------------


Текст, аккорды и табулатура для песни "True Romance", исполняет "Tiger Army".
Используемые в песне аккорды можно найти в разделе Как брать аккорды. Аккорды для шестиструнной гитары. Другие песни можно найти на нашем сайте, воспользовавшись алфавитным указателем вверху страницы.


 
Ошибка в тексте? Выделите ошибку и нажмите Ctrl+Enter