-----------------------------------------------------------------------------
                         *Tiger Army-Outlaw Heart*
-----------------------------------------------------------------------------
Tabbed By:Mothra ([email protected])


Chords used:
   C#        A#m        F#        G#
 e--9---     --6--     --2--     --4--|
 B--9---     --6--     --2--     --4--|
 G--10--     --6--     --3--     --5--|
 D--11--     --8--     --4--     --6--|
 A--11--     --8--     --4--     --6--|
 E--9---     --6--     --2--     --4--|


Intro
         C#        A#m       C#               A#m
e|-----------------------------------------------------|
B|-----------------------------------------------------|
G|-----------------------------------------------------|
D|-----------------------------------------------------|
A|-444-3-1---111-3-4---444-3-1-111-3-1-3-1-3-----------|
E|--------------------------------------------4--------|

         C#        A#m       C#              A#m
e|-----------------------------------------------------|
B|-----------------------------------------------------|
G|-----------------------------------------------------|
D|-------------------------------------------------1-3-|
A|-444-3-1---111-3-4---444-3-1-111-3-1-3-1-3-4-444-----|
E|-----------------------------------------------------|

C#                 A#m
Desert night under lonely stars
C#                                 A#m
Cruising down the highway takes me farther from home
C#          A#m     C#                              A#m
Whiskey and regret, neither can erase the fact that I have done wrong
F#                C#   F#               C#
So now I'm on the run, the law is on my trail
F#                          C#
Let down the only girl that ever seemed to be the one for me,
F#              G#
so now I wander alone.

1st SOLO
    C#         A#m                 C#                 A#m
e-----9--------9-11-9-11^13-11-9-----9----------6/9--------|
B---9---9---6----------------------9---9---6-6--------9~~~-|
G----------------------------------------------------------|
D----------------------------------------------------------|
A----------------------------------------------------------|
E----------------------------------------------------------|

    C#         A#m                 C#                 A#m
e-----9--------9-11-9-11^13-11-9-----9-----------6/9-------|
B---9---9---6----------------------9---9---6-6--------9~~~-|
G----------------------------------------------------------|
D----------------------------------------------------------|
A----------------------------------------------------------|
E----------------------------------------------------------|
C#,  A#m,  C#,  A#m

C#                     A#m
Alone in a cheap motel room.
C#                  A#m
Praying to the Lord above
C#                          A#m
Burden of the past rests so heavy on my shoulders
F#                                  G#
My conscience carries the weight of blood

C#                  A#m       C#                 A#m
Cigarette smoke and shadow, a neon cactus in the night
C#                       A#m
Did what I did because I thought that I had no choice,
F#                         G#
but there's always another way
F#                     C#     F#                              C#
I look to the moon and stars, somewhere underneath them she's there
F#              C#
Never spoke the words of love I hid in my heart,
       F#                             G#
If she heard them now would she still care?
F#                          C#
Wonder if she's thinking of me?
F#                             C#
does she hate me for what I've done
F#                             C#
How I wish that I could change everything and go back
F#                         G#
now that my last chance is gone, It's gone...

2nd SOLO
    C#          A#m                 C#                A#m
e-----9---------9-11-9-11^13-11-9-----9----------6/9-------|
B---9---9---6-----------------------9---9---6-6-------9~~--|
G----------------------------------------------------------|
D----------------------------------------------------------|
A----------------------------------------------------------|
E----------------------------------------------------------|

    C#          A#m                 C#                A#m
e-----9---------9-11-9-11^13-11-9-----9----------6/9-------|
B---9---9---6-----------------------9---9---6-6-------9~~~-|
G----------------------------------------------------------|
D----------------------------------------------------------|
A----------------------------------------------------------|
E----------------------------------------------------------|

  F#                        C#   F#                       C#
e----14-----14^16---14------13~~----14-----14^16---14-----13~~-|
B-14----14-------------14---14~~-14----14-------------14--14~~-|
G--------------------------------------------------------------|
D--------------------------------------------------------------|
A--------------------------------------------------------------|
E--------------------------------------------------------------|

  F#                   C#                   F#                G#
e---14---14^16--14-------13---13^15--13-------14--14--14--14--21~-|
B-14--14-----------14--13--13-----------13--14--14--14--14--------|
G-----------------------------------------------------------------|
D-----------------------------------------------------------------|
A-----------------------------------------------------------------|
E-----------------------------------------------------------------|

F#                          C#
Moon, will you tell her for me
F#                                      C#
I'm sorry for all the trouble that I've caused
   F#                          C#
If only I could find a way to return to her someday,
      F#                     G#
for I long to hold her in my arms
F#                                    C#
But I fear that i'm not long for this world,
          F#                        C#
because I will not go out without a fight
    F#                  C#
I'm running forever and if they should catch me
         F#                              G#
One last thought of her before my gun is fired...

C# A#m
C# A#m
C# A#m
F# G#
C#...


There it is, the entire song chords solos and all. it's all in order and should be easy 
play. It's in standard tuning, nick 13 has a high-pitched voice that's the reason it's 
in Sharp Chords.If you have any questions e-mail me, or if you have comments.
See you on the next tiger army album.


Текст, аккорды и табулатура для песни "Outlaw Heart", исполняет "Tiger Army".
Используемые в песне аккорды можно найти в разделе Как брать аккорды. Аккорды для шестиструнной гитары. Другие песни можно найти на нашем сайте, воспользовавшись алфавитным указателем вверху страницы.


 
Ошибка в тексте? Выделите ошибку и нажмите Ctrl+Enter