------------------------------------------------------------------------------- 
                          NOCTURNAL - Tiger Army 
------------------------------------------------------------------------------- 

#A1 
E ------------------------------------------------- 
B ------------------------------------------------- 
G ------------------------------------------------- 
D --11--7--4--11----------------------------------- 
A ---9--5--2--9------------------------------------ 
E ------------------------------------------------- 
(play #A1 4 times and on the last time cut out the 9/11 chord and replace it 
with the one in riff #A2) 

#A2 
e|------------------------------------------------- 
b|------------------------------------------------- 
g|------------------------------------------------- 
D|----6-------------------------------------------- 
A|----4-------------------------------------------- 
E|------------------------------------------------- 

Solo! 
e|---------------------------------------------------------------0----------------------------
b|----------------3--2--0---------------------------------------3---3--2--0-------------------
g|---1--2--4--2--1-----------2--1-------1--2--1--------1-2-4-2-1-------------------1-1-1-2B---
D|-4-----------------------------4-4-4----------2B--4-----------------------4-4-4----------9*-
A|--------------------------------------------------------------------------------------------
E|-------------------------------------------------------------------------------------------- 

2B= bend note 
9* = slide down the fret board while strumming that one sting 

modified riff #A1 (calling this riff #1) 
e|-------------------------------------------------- 
b|-------------------------------------------------- 
g|-------------------------------------------------- 
D|--11--7--4--11--7--9--11--7--4--6----------------- 
A|---9--5--2---9--5--7--9---5--2--4----------------- 
E|-------------------------------------------------- 

riff #3 
e|---------------------------------------------------------------- 
b|---------------------------------------------------------------- 
g|---------------------------------------------------------------- 
D|--11--7--12--11--C--11--9--7--6--C--11--9--12--11--C--7--9--11-- 
A|---9--9--10---9--C--9---7--5--4--C--9---7--10--9---C--5--7--9--- 
E|---------------------------------------------------------------- 

play riff #1 (To add some spice into it, play the chord once and let it ring 
till its time to 
play the next chord. also when you get down to the 4/6 chord, palm mute it a 
few times then 
regularly strum it. I find that it adds to the effect.) 
Imediatly go into riff #3 
play riff 3 again and the song should be done. If you'd like to end the song 
like I do...play 
these notes or variations of it. 

e|------------------------------------------ 
b|------------------------------------------ 
g|------------------------------------------ 
D|---11-----11--------9--------------------- 
A|-------9------9--7------------------------ 
E|------------------------------------------ 

If you have anything to add, although its highly unlikley cuz I've been 
playing this song for a 
long time now, e-mail me at [email protected] 
thanx 

Testicleses 

------------------------------------------------------------------------------


Текст, аккорды и табулатура для песни "Nocturnal", исполняет "Tiger Army".
Используемые в песне аккорды можно найти в разделе Как брать аккорды. Аккорды для шестиструнной гитары. Другие песни можно найти на нашем сайте, воспользовавшись алфавитным указателем вверху страницы.


 
Ошибка в тексте? Выделите ошибку и нажмите Ctrl+Enter