------------------------------------------------------------------------------- 
                              NEVER DIE - Tiger Army 
------------------------------------------------------------------------------- 

PLAY IN ORDER AS SHOWN BELOW!!! 
r= ring 

G:-------------------------------------------------------------- 
D:------------6789876----------4567654----------6789876--------- 
A:-5r--0r--67---------6789876-5--------4567654-7--------6789876- 
E:-------------------7----------------5----------------7-------- 

G:--------------------------------- 
D:--------------------------------- 
A:-000-333-111-555-000-333-111-555- 
E:--------------------------------- 

G:--------------------------------------------------------------------- 
D:--4567654----------6789876----------4567654----------6789876--------- 
A:-5--------4567654-7--------6789876-5--------4567654-7--------6789876- 
E:---------5----------------7----------------5----------------7-------- 

G:--------------------------------------------------------------- 
D:--------------------------------------------------------------- 
A:-000-333-111-555-000-333-111-555-0---3---1---5---0---3---1---5- 
E:--------------------------------------------------------------- 

G:--------------------------------------------------------------------- 
D:--4567654----------6789876----------4567654----------6789876--------- 
A:-5--------4567654-7--------6789876-5--------4567654-7--------6789876- 
E:---------5----------------7----------------5----------------7-------- 

G:-------------------------------------- 
D:-----------2-------------------2------ 
A:-5----0---------2----5----0---------2- 
E:-------------------------------------- 

(listen to song for rythym) 
G:--------------------------------------------------------- 
D:---------------222222----------------------222222-------- 
A:-555555-000000--------222222-555555-000000--------222222- 
E:--------------------------------------------------------- 

G:----------------------------------------------------------------- 
D:----------------------------------------------------------------- 
A:-000-333-111-555-000-333-111-555-000-333-111-555-000-333-111-555- 
E:----------------------------------------------------------------- 

G:-------------------------------------------------|(start slapping)- 
D:-------------------------------------------------|----------------- 
A:-000-333-111-555-000-333-111-555-000-333-111-555-|-000-333-111-555- 
E:-------------------------------------------------|----------------- 

G:------------------------------------------------------------- 
D:------------------------------------------------------------- 
A:-------8-8-5-5--------8-8-5-5--------8-8-5-5--------8-8-5-5-- 
E:-00020--6-6-5-5-00020--6-6-5-5-00020--6-6-5-5-00020--6-6-5-5- 

G:------------------------------------------------------------------------- 
D:-------5-5-5-5-5---5-----4567654-4567654--------------------------------- 
A:--------4-4-4-4-467-467-5-------5--------2-2-2-2-2-2-2-2----------------- 
E:-00020---------------------------------------------------0-0-0-0-0-0-2-0- 

G:---------------------------------------------------- 
D:-5-5-5-5-5-5-5-5--------------------3-3-3-3-3-3-3-3- 
A:--5-5-5-5-5-5-5-5-5-5-5-5-5-5-5-5--2-2-2-2-2-2-2-2-- 
E:-------------------5-5-5-5-5-5-5-5------------------ 

G:--------------------------------------------------------- 
D:------5-5-3-3-------5-5-3-3-------5-5-3-3-------5552224r- 
A:-------5-5-2-2-------5-5-2-2-------5-5-2-2--------------- 
E:-2232----------2232----------2232----------2232---------- 

Tabbed by Filthy Rude_boy 
e-mail me for any corrections at [email protected] 

[email protected]--------------


Текст, аккорды и табулатура для песни "Never Die", исполняет "Tiger Army".
Используемые в песне аккорды можно найти в разделе Как брать аккорды. Аккорды для шестиструнной гитары. Другие песни можно найти на нашем сайте, воспользовавшись алфавитным указателем вверху страницы.


 
Ошибка в тексте? Выделите ошибку и нажмите Ctrl+Enter