------------------------------------------------------------------------------- 
                           ANNABEL lEE - Tiger Army 
------------------------------------------------------------------------------- 

By:Spidey255 

Tuning - Standard (EADG) 
Picking - Fingers 

Intro 2x 
G|-----------------------------------------------------------| 
D|-2-2-2-2-2-4-----------------2--------2-------1-2-4-2-1----| 
A|-------------2-2-2-2-2-2-0-2---2-0-2----2-0-2------------2-| 
E|-----------------------------------------------------------| 

Verse (First Half) 2x 
G|--------------------------------------------------| 
D|2-2-2-2-2-4---------------------------------------| 
A|-------------2-2-2-2-2-2--------------0-0-0-2-2-2-| 
E|-------------------------4-4-4-4-4-4--------------| 

(Second Half) 1x 
G|---------------------------------------------------| 
D|-2-2-2-4-4-4-6-6-6-7-7-7---------------------------| 
A|---------------------------------------0-0-0-2-2-2-| 
E|--------------------------4-4-4-4-4-4--------------| 
*The first two times you play the chorus play the first half 2 times and the second half once, then 
towards the end in the 3rd verse reverse it and play the second half two times and the first half 1 time. 
When you do this play the seocnd part first and the first half second. Screw it I'll jus tput it here. 

Verses Towards The End 
2x 
G|---------------------------------------------------| 
D|-2-2-2-4-4-4-6-6-6-7-7-7---------------------------| 
A|---------------------------------------0-0-0-2-2-2-| 
E|--------------------------4-4-4-4-4-4--------------| 

1x 
G|--------------------------------------------------| 
D|2-2-2-2-2-4---------------------------------------| 
A|-------------2-2-2-2-2-2--------------0-0-0-2-2-2-| 
E|-------------------------4-4-4-4-4-4--------------| 

Chorus 
G|----------------------------------| 
D|-2-2-2-2--------------------------| 
A|----------3-3-3-3-0-0-0-0-0-0-0-0-| 
E|----------------------------------| 

Outro - Same as intro 

There it is. It's pretty self explanatory as to what parts to play and when. I 
know some parts might be a bit confusing and might be incorrect but it sounds 
ok to me. 

If you would like to send corrections, comments, or suggestions please E-mail 
me at [email protected] 

[email protected]--------------


Текст, аккорды и табулатура для песни "Annabel Lee", исполняет "Tiger Army".
Используемые в песне аккорды можно найти в разделе Как брать аккорды. Аккорды для шестиструнной гитары. Другие песни можно найти на нашем сайте, воспользовавшись алфавитным указателем вверху страницы.


 
Ошибка в тексте? Выделите ошибку и нажмите Ctrl+Enter