1 git
d--------------------------------------------------------|
a--------------------------------------------------------|
f------------------0---------------------0---------------|
c--------------2-----------2---------2-----------2-------|
A----------2-----------------------|---------2-----------------------|
D--0-------------------------------|-0-------------------------------|
2 git                                                                |
d-------0------------------------------------------------|
a------0-------------------------------------------------|
f-----0--------------------------------------------------|
c----2---------------------------------------------------|
A---2----------------------------------------------------|
D--0-----------------------------------------------------|


d--------------------------------------------------------|
a--------------------------------------------------------|
f--------------3---0-----------------3---0---------------|
c----------2-----------------------|---------2-----------------------|
A--------------------------------------------------------|
D--0-------------------------------|-0-------------------------------|
                                                                     |
d-------6------------------------------------------------|
a------3-------------------------------------------------|
f-----3--------------------------------------------------|
c----3---------------------------------------------------|
A---0----------------------------------------------------|
D--------------------------------------------------------|


d--------------------------------------------------------|
a--------------------------------------------------------|
f------------------0---------------------0---------------|
c--------------2-----------2---------2-----------2-------|
A----------2-----------------------|---------2-------------------2---|
D--0-------------------------------|-0-------------------------------|
                                                                     |
d-------0------------------------------------------------|
a------0-------------------------------------------------|
f-----0--------------------------------------------------|
c----2---------------------------------------------------|
A---2----------------------------------------------------|
D--0-----------------------------------------------------|


d--------------------------------------------------------|
a--------------------------------------------------------|
f------------------0-----------------0---0---------------|
c--------------0-----------0-------|---------2---------------2-------|
A----------2-------------------2---|-0---------------------------0---|
D--3-----------------------------------------------------|
                                                                     |
d-------3--------------------------|------3--------------------------|
a------3---------------------------|-----3---------------------------|
f-----0----------------------------|----2----------------------------|
c----0-----------------------------|---2-----------------------------|
A---2------------------------------|--0------------------------------|
D--3-------------------------------|-0-------------------------------|

(Raz powtorzyc)


Текст, аккорды и табулатура для песни "Wildhoney", исполняет "Tiamat".
Используемые в песне аккорды можно найти в разделе Как брать аккорды. Аккорды для шестиструнной гитары. Другие песни можно найти на нашем сайте, воспользовавшись алфавитным указателем вверху страницы.


 
Ошибка в тексте? Выделите ошибку и нажмите Ctrl+Enter