Standard tuning E A D G

G------------------------------------------------------------
D------------------------------------------------------------
A--0--0--0--0-0-0--0--0---3--3--3--3-------------------------
E------------------------------------------------1--1--1--1--
Intro

G----------------------------------------------------------------------------
D----------------------------------------------------------------------------
A--0-0-0-0-0-0-0-0-0-0-0-0-0-0-0-0-------------------------------------------
E-------------------------------------------------3-3-3-3-3-3-3-3-3-3-3-3-3--
Verses

G----------------------------------------------------------
D----------------------------------------------------------
A----------------------------------------------------------
E--1-1-1-1-1-1-1-1-1-1-1-1-1----0-0-0-0-0-0-0-0-0-0-0-0-0--
pre chorus change

G------------------------------------------------------------------------------
D------------------------------------------------------------------------------
A--0-0-0-0-0-0-0-0---3-3-3-3-3-3-3-3-------------------------------------------
E--------------------------------------------1-1-1-1-1-1-1-1--0-0-0-0-0-0-0-0--
Chorus

G---------------------------------------------------------------------------
D---------------------------------------------------------------------------
A--0-0-0-0-0-0-0-0-0-0-0-0---3-3-3-3-3-3-3-3-3-3-3-3------------------------
E------------------------------------------------------0-0-0-0-0-0-0-0-0-0--
chorus cont.

G----------------------------------------------------------------------
D----------------------------------------------------------------------
A--3-3-3-3-3-3-3-3-3-3-3-3-3-3-3---------------------------------------
E---------------------------------------0-0-0-0-0-0-0-0-0-0-0-0-0-0-0--
Break @ 3:04


Текст, аккорды и табулатура для песни "Vote For Love", исполняет "Tiamat".
Используемые в песне аккорды можно найти в разделе Как брать аккорды. Аккорды для шестиструнной гитары. Другие песни можно найти на нашем сайте, воспользовавшись алфавитным указателем вверху страницы.


 
Ошибка в тексте? Выделите ошибку и нажмите Ctrl+Enter