Riff 1
---------------------------------------------------------|
---------------------------------------------------------|
---------------------------------------------------------|Gitaur 1
|---------3--2-------------------------------------------------------|Acoustic
|------2-------3-2-3-2-----------------------------------------------|
|---0----------------------------------------------------------------|

Riff 1
-------------------------------------------------------|
-------------------------------------*-play 2nd time---|
-------------------------------------------------------|Gitaur 2
------------------------------------*-(2)-~~~~~--------|
-------------3-3--3---3-3--3--------*-(2)-~~~~---------|
-------------1-1--1---1-1--1--------*-(0)-~~~~---------|

Riff 2 (Harmony)
Chorus
------------------------------------------------|
------------------------------------------------|
------------------------------------------------|Guitar 1
|---------3--2-----------------------------------2----------|
|------2--------3-2-3-2---3-3--3---3-3--3--------2----------|
|---0---------------------1-1--1---1-1--1--------0----------|

Riff 2 (Harmony)
Chorus
-----------------------------------------------|
-----------------------------------------------|
|---------5--4---------------------------------------------|Guitar 2
|------4--------5-4-5-4--------------------------2---------|
--------------3-3--3---3-3--3--------2---------|
|---0---------------------1-1--1---1-1--1--------0---------|

Fill
-----------------------------------------------|
|---PM-------------18--------18-17~~~----------------------|
-17--------------------------------------------|Guitar 1
|------15-15----15-----15-15-------------------------------|
-----------------------------------------------|
-----------------------------------------------|

Riff 3
Alone I Sit I wonder            so do I
The More I Drink                Be the Key
------------------------------------------------|
------------------------------------------------|
------------------------------------------------|Both
|---2---------------------------5---4-----------------------|
|---2---------------------------3---2-----------------------|
|---0-------------------------------------------------------|

Bridge
-----------------------------------------------------|
-----------------------------------------------------|
-----------------------------------------------------|Both
|--15----12-----10-----9----7----5----------------(2)------------|
|--13----10------8-----7----5----3---7---5--------(2)------------|
|-----0------0------0----0----0------5---3--x3----(0)-4th  time--|

Just reapeat one after another for acoustic
|--------0-------0-------|--------0-----0-----0-----0------------|
|------0-------0---------|------0-----0-----0-----0--------------|
-----------------------------------------|Guitar 1
-------------|----2-----0-----3-----2----------------|Acoustic
|---2------1-----------------------------------------|
------reapeat----------------------------|


Текст, аккорды и табулатура для песни "The Sleeping Beaty", исполняет "Tiamat".
Используемые в песне аккорды можно найти в разделе Как брать аккорды. Аккорды для шестиструнной гитары. Другие песни можно найти на нашем сайте, воспользовавшись алфавитным указателем вверху страницы.


 
Ошибка в тексте? Выделите ошибку и нажмите Ctrl+Enter